#1
What I have here comprises most of the song, but I can't quite hear what's going on from 0:40 to 1:08. Someone wanna help me out and tab that bit for me? I'll give you props when I post the tab on the actual site. Thanks!

http://www.youtube.com/watch?v=sF1iPMbxiDw


Main Riff
e|------2--------4----------------------------------|
B|------2--------4---------------9-----------7--------|
G|----2--------4-----------------9-----------8--------|
D|----------------------------11-----------9---9------|
A|--------------------------------------------------------|
E|--2-----2-s4-----4-7s9-----------9-7-------------| x2

Bridge
e|----------------------------------------|
B|------5-------5-----------2---------2-----------|
G|------5-------5-----------2---------2-----------|
D|----7-------x----------2---------4-------------|
A|--------------------------------2--------2---------|
E|--5-----5-5-----5s2---------------------|