#1
Hey, I am trying to work out tabs for Morning Teleportation, I really like the band and want to play their stuff, but my ear is untrained and that is going slow me down a lot :-/...so if you don't mind I could use all the help I can get.

Songs in order of my interest to tab:
Expanding Anyway
Crystalline
Just A Figment
Treble Chair
Daydream Electric Storm
Eyes the Same
Boom Puma
Snow Frog vs. Motor Cobra
Wholehearted Drifting Sense of Intertia
Foreign Planes
Cold Weather Sunshine
Banjo Disco (played with a banjo)

So that's just the order I am thinking of working on these...but if you could help me out with any of the above I'd very much appreciate it... so just key of any of the songs, tuning, capo position, any tablature to any of the parts. I'll be working on it by myself, hopefully with some of your guy's help it might go a bit faster.

so thank you in advance, if you haven't heard these guys check them out they are really interesting.
Danelectro 1959 reissue

Quote by G.Krizzel
Music is just wiggly air. Accept it or leave it.


Also please visit this thread and help me tab out an album!!!
thread.
Last edited by 801Current at Jun 11, 2011,
#2
Well this is what I have so far, filled with a lot of blanks :-/

Morning Teleportation - Expanding Anyway
Capo on fifth fret
worked off: http://www.youtube.com/watch?v=GHXRetkFpEA

two chords i think are used mostly:

E|-1-0-----------------|---------------------|---------------------|
H|-1-1-----------------|---------------------|---------------------|
G|-2-0----------------------------------------------10-------------|
D|-2-2-----------------|---------------------|---------------------|
A|---3-----------------|---------------------|---------------------|
E|---------------------|---------------------|---------------------|


0:10
E|---------------------|---------------------|---------------------|
H|-0h1-1h4-------------|---------------------|---------------------|
G|-----------------------------------------------------------------|
D|---------------------|---------------------|---------------------|
A|---------------------|---------------------|---------------------|
E|---------------------|---------------------|---------------------|

0:18
E|---------------------|---------------------|---------------------|
H|-1-1---1-1-0----------|---------------------|--------------------|
G|-----2-----2-----------------------------------------------------|
D|-2-2-2-2-2-2-----------|---------------------|-------------------|
A|---------------------|---------------------|---------------------|
E|---------------------|---------------------|---------------------|

:23
E|--3/5----------------|---------------------|---------------------|
H|---------------------|---------------------|---------------------|
G|-----------------------------------------------------------------|
D|---------------------|---------------------|---------------------|
A|---------------------|---------------------|---------------------|
E|---------------------|---------------------|---------------------|


try pentatonic scale at the ending scale part?? :-/


So Yeah...I need to take a break before my head explodes so sorry for all the blanks if there is anything wrong like I said my ears aren't trained yet

So I'll keep working later, please assist me with anything you can >.< I don't think I'll make too much progress with out some help.
Danelectro 1959 reissue

Quote by G.Krizzel
Music is just wiggly air. Accept it or leave it.


Also please visit this thread and help me tab out an album!!!
thread.
Last edited by 801Current at Jun 11, 2011,
#4
Alright, bit confused by that last post, but here's an update on what I've personally got, hoping most of it's right, if anyone would like to check it or add to it, I'd appreciate it.....

Morning Teleportation - Expanding Anyway
Capo on fifth fret
worked off: http://www.youtube.com/watch?v=GHXRetkFpEA

two chords i think are used mostly:

E|-1-0-----------------|---------------------|---------------------|
H|-1-1-----------------|---------------------|---------------------|
G|-2-0-------------------------------------------------------------|
D|-2-2-----------------|---------------------|---------------------|
A|---3-----------------|---------------------|---------------------|
E|---------------------|---------------------|---------------------|


0:10
E|---------------------|---------------------|---------------------|
H|-0h1-1h4/10/13\------|---------------------|---------------------|
G|-----------------------------------------------------------------|
D|---------------------|---------------------|---------------------|
A|---------------------|---------------------|---------------------|
E|---------------------|---------------------|---------------------|

0:18
E|---------------------|---------------------|---------------------|
H|-1-1---1-1-0----------|---------------------|--------------------|
G|-----2-----2-----------------------------------------------------|
D|-2-2-2-2-2-2-----------|---------------------|-------------------|
A|---------------------|---------------------|---------------------|
E|---------------------|---------------------|---------------------|

:23
E|-8-8/10-8----------------------------------|---------------------|
H|----------10-8-10/8------------------------|---------------------|
G|--------------------10-------------------------------------------|
D|---------------------|---------------------|---------------------|
A|---------------------|---------------------|---------------------|
E|---------------------|---------------------|---------------------|

1:27
E|-12h13-12-10-8h10-8--------|-----------5-6-8/10~-----------------|
H|--------------------10-8~-6---|--5-6-8----|----------------------|
G|----------------------------8/9----------------------------------|
D|---------------------|---------------------|---------------------|
A|---------------------|---------------------|---------------------|
E|---------------------|---------------------|---------------------|
Danelectro 1959 reissue

Quote by G.Krizzel
Music is just wiggly air. Accept it or leave it.


Also please visit this thread and help me tab out an album!!!
thread.
#5
Crystalline is capo 6, Am and E for the verse, C and F for the chorus. That's all I got. Amazing band and a lot of fun to hang out with if you ever get the chance.
#6
Thanks man! We wanted to stay after the show and talk with em, but my buddy made us leave when the show ended. It was a great show, we were in the front and Tiger came down and for a final solo in the crowd, great night.
Danelectro 1959 reissue

Quote by G.Krizzel
Music is just wiggly air. Accept it or leave it.


Also please visit this thread and help me tab out an album!!!
thread.
#7
I'm pretty sure Expanding Anyway uses xx3211, not xx2211 most of the song. That's always how I've played around with it.
#8
Quote by Rick_Diculous
I'm pretty sure Expanding Anyway uses xx3211, not xx2211 most of the song. That's always how I've played around with it.


Well I figured that before, because then it would be a major bar chord, but I swear it sounded right as xx2211, but I'll have to look at it again.

Let me know of anything else you find, thanks
Danelectro 1959 reissue

Quote by G.Krizzel
Music is just wiggly air. Accept it or leave it.


Also please visit this thread and help me tab out an album!!!
thread.
#10
Quote by harrydg
I've submitted a tab for most of the Snow Frog vs. Motor Cobra solo. Hopefully that will get approved soon and you guys can use it to figure out some other stuff

EDIT: It has been approved! Enjoy! http://tabs.ultimate-guitar.com/m/morning_teleportation/snow_frog_vs_motor_cobra_solo_tab.htm


Awwwh yeah! thanks man!
Danelectro 1959 reissue

Quote by G.Krizzel
Music is just wiggly air. Accept it or leave it.


Also please visit this thread and help me tab out an album!!!
thread.
#11
Does anyone have Treble chair tabbed yet? I've been watching videos to figure out the bass by ear but it's pretty challenging. Anyone?