#1

  +H     +E  E E E   E E E  E   E  E E E
|-(0)----(0)-------|---------------------|
|-(0)----(0)-------|---------------------|
|-(9)----(9)-------|-------------------2-|
|-(9)----(9)-------|-------------------2-|
|-(7)----(7)-------|-4---4-<2>---------0-|
|-(0)----(0)-4-4-0-|-2p0-2-----<2>-2-4---|


      PM|         ~
  +E  E E E +E  E Q    E E E  E   E  E E E
|--------------------|----------------------|
|--------------------|----------------------|
|-(2)----------------|-------------------7--|
|-(2)-----2-(2)------|-------------------7--|
|-(0)-----2-(2)------|-4---4-<2>-<2>-----5--|
|-----4-2-0-(0)-2-4--|-2-0-2---------2-0----|


This is the chorus of the song in the tab version 8 - rated 5 stars.

Those <2>'s are harmonics right?

I swear llistening to the song there is only 1 harmonic?
#2
I can't think of that specific part of the song off the top of my head at the moment, but yes those are almost definitely tabbed as harmonics. Check the bottom of the tab... a lot of them have a "legend" of the tablature.
#3
Quote by Pac_man0123
I can't think of that specific part of the song off the top of my head at the moment, but yes those are almost definitely tabbed as harmonics. Check the bottom of the tab... a lot of them have a "legend" of the tablature.

Its the part where Ozzy goes "Im going off the rails on a Crazy Train" and the aftermath up to the alternate strumming riff

There is no legend, but I agree its harmonics
#4
Really? I definitely hear the two harmonics.

Quote by emad
jthm_guitarist
Warned for trolling!


Quote by metal4eva_22
Didn't you say that you had a stuffed fox that you would occasionally fuck?

Quote by Axelfox
It's not a fox,it's a wolf.
#5
Yeah, two harmonics

...crazy traaa-aaain
------------<h> <h>

Can't be arsed to wrap code tags, but it's two harmonics, just allow your hand to come up playing the second one after playing the first one, don't force yourself into playing two, it's a question of rhythm
Look!

Learn how to spell, grammar is your friend

Member #11 of the Les Paul owners club, pm Waterboy799 to join.

Blues player of the Laney Cult
Last edited by Garci at Jun 13, 2011,
#7
OMG IT IS TWO HARMONICS you guys are the best!

When playing them, do you just rest your index finger right above the 2nd fret and strum hard?