#1
Awesome new metal/hardcore M/ band from the genius mind of Daniel Gasalho.

This is the first song I made with my band I'm starting and it's also an original track and music video I had to make for the end of my Media Studies course =) At this moment, the only band members is me (Daniel) and my friend who plays bass/guitar (Matthew) and we made this song, however...we didn't have time to put in my vocals =[ just a little hardcore "OH" at the end XD but yeh enjoy and tell me what ya think =D Keep it Metal/Hardcore M/

Name of band: Reprogrammed To Hate (name influenced from Whitechapel's song)
Genre: Metal, Metalcore, Hardcore Punk, Trancecore, Post-Hardcore? O.o M/

Actor: Daniel Gasalho (Me)
Bass/Guitar done by: Mathew Jones
Synths/drum programming/Electronics by: Daniel Gasalho (Me)
Producer/editor of song: Daniel Gasalho (Me)
Video produced and edited by: Daniel Gasalho (Me)

Band Influences are;
Enter Shikari, Fail Emotions, Caliban, The Browning, Attack Attack!, Asking Alexandria, Bring Me The Horizon, Escape The Day, Abandon All Ships, 30 Seconds To Mars, Motionless In White etc.


http://www.youtube.com/watch?v=idIAOyrj8_o&feature=player_embedded
#6
They should be reprogrammed to not suck.
*-)
Quote by Bob_Sacamano
i kinda wish we all had a penis and vagina instead of buttholes

i mean no offense to buttholes and poop or anything

Rest in Peace, Troy Davis and Trayvon Martin and Jordan Davis and Eric Garner and Mike Brown
#12
Intro
|-----------------------------------|
|-----------------------------------|
|-----------------------------------|
|-----------------------------------|
|-------0-0--000--00--000-000-000-0-|
|-7^-0--0-0--111--11--111-111-111-1-|

|------------------------------------------|
|------------------------------------------|
|------------------------------------------|
|------------------------------------------|
|-------0-0--000-0-000-000-0---------------|
|-7^-0--0-0--111-1-111-111-1--5h8--0--3p.h-|

|-------------------------------------------------------|
|-------------------------------------------------------|
|-------------------------------------------------------|
|-------------------------5-----------------------------|
|-0-0-0-000---000-000--0--5--5h6p5-3-5-5-5---6---8-6-5--|
|-1-1-1-111---111-111--0--5-5--------5-5---5---5--------|

|-----------------------------------|
|-----------------------------------|
|-----------------------------------|
|-----------------------------------|
|-------0-0--000--00--000-000-000-0-|
|-7^-0--0-0--111--11--111-111-111-1-|
#13
^ Thanks for this, I really wanted to learn it.
R.I.P. Ronnie James Dio. Supplied amazing music to both me and my mother.

He will be missed.
#14
what's with this forum and purposely making "bad band threads" ? I mean, yeah it's fun to laugh at them, but you can just post a link in the off topic thread or something. Personally, I'd like to find some more bands I'd enjoy, I already hate enough.