#1
I would like some help tabbing this song out, since no one has taken the time to do so. I cannot get the intro down. I know there is some serious delay involved (which is what is probably screwing me up), and some of the pre-solo I cannot get.

I would like to submit this, but I want to get it a little more complete before I do so. Any help that anyone can offer would be appreciated.

Thanks


Song: Ten Years
Artist: Rev Theory
Album: Light It Up (2008)

Drop C (CGCFAd)

*I tabbed this using a 24 fret Schecter

Chorus
|---------------------------|
|---------------------------|
|-------2---------2-4-------|
|-0-2-4-2-2-0-2-4-2-4-0-----|
|-0-2-4-0-2-0-2-4-0-2-0-----|
|-0-2-4---2-0-2-4-----0-----|

Chorus/Pre Solo
|-------------------------------|
|-------------------------------|
|-------2---------2-4-7-6-------|
|-0-2-4-2-2-0-2-4-2-4-7-6-------|
|-0-2-4-0-2-0-2-4-0-2-5-4-------|
|-0-2-4---2-0-2-4---------------|

Pre Solo
|----------------------------------------------------???-----------|
|----------------------------------------------------???-----------|
|-------1-1--2-2--1-1--2-2--4-4--6-6--4-4--6-6--7-7--???-----------|
|--4-4--1-1--2-2--1-1--2-2--4-4--6-6--4-4--6-6--7-7--???-----------|
|--4-4-----------------------------------------------???-----------|
|----------------------------------------------------???-----------|

Solo*
|-21b22r21--19--22b24r22-22---21p19h21--19-17-19-16----------------|
|------------------------------------------------------------------|
|------------------------------------------------------------------|
|------------------------------------------------------------------|
|------------------------------------------------------------------|
|------------------------------------------------------------------|

|-17-16------17-16------17-16------17-16------19-17-16----19-17-16--|
|-------19---------19---------19---------19-------------------------|
|-------------------------------------------------------------------|
|-------------------------------------------------------------------|
|-------------------------------------------------------------------|
|-------------------------------------------------------------------|

|-21-17-----21-17--------17-19--19---17-19-21p19-17-19-21-19-17-19----|
|-------19--------19--------------------------------------------------|
|---------------------------------------------------------------------|
|---------------------------------------------------------------------|
|---------------------------------------------------------------------|
|---------------------------------------------------------------------|
Last edited by chris.niziolek at Jun 18, 2011,
#2
d|---------------------------------------------------------------------------------|
A|---------------------------------------------------------------------------------|
F|-------------2-----------1---------------2------------1-------1------1--------|
C|-------------------------------------------------------------2------2-----------|
G|---------4------4--------------------4-------4---------------------------------|
C|----4---------------4-----------4---------------4------------------------------|

d|---------------------------------------------------------------------------|
A|---------------------------------------------------------------------------|
F|------------2----------1--------------2-----------4---------1-----------|
C|---------------------------------------------------------------------------|
G|-------0-------0-----------------0-------0-------------------------------|
C|----0-------------0----------0--------------0---------0-----------------|

Pre chorus:
d|--------------------------------------------------------------------------------------------------------|
A|--------------------------------------------------------------------------------------------------------|
F|-----------------------------------------------------------------------------------------------666666|
C|--------------------------------------------------------------------4-3-4-6-4-3-333333--666666|
G|----------------000--------000--222--444--222--444-555----------------------------444444|
C|---444--666--------666-----------------------------------------------------------------------------|
Last edited by crmrz at Jun 18, 2011,