#1
hey

i'm looking for the tab from the main riff in the scorpions song "hey you"

i've found this:


-----------------------------------------------|
------------------------------------8-8-7-7----|
-----------------8-8-7-7-----------------------|
----9-10-7---9-5---------9-10-7--9-5-----------|(x2)
-----------------------------------------------|
-----------------------------------------------|
and i think it's not totaly correct

can anybody comment on this/ help me out
is it correct ? what's wrong ?


for the record: the riff i mean begins at 00:15 in this youtube clip
http://www.youtube.com/watch?v=tFpSLFeiLsc
#2
E|-------------|-------------|--------|---------------------|-------------|-------------|
B|-------------|-------------|--------|---------------------|-------------|-------------|
G|-------------|-------------|--------|---------------------|-------------|-------------|
D|-9------10---|-7------9----|-5------|-12--10---9-----10---|-9------10---|-7------9----|
A|-------------|-------------|--------|---------------------|-------------|-------------|
E|-------------|-------------|--------|---------------------|-------------|-------------|


E|--------|--------------------|
B|--------|-8---7----8---7-----|
G|--------|--------------------|
D|-5------|--------------------|
A|--------|--------------------|
E|--------|--------------------|


This should be it
- There are no wrong notes, just bad choices -