#1
I've noticed that when I play runs across and down the fretboard that I tend to pull off as a travel across each string, so I end up with alot of open string noise.

how do you guys recommend I got about correcting this?

If you don't know what I mean, it's mostly licks like this (from Over The Mountain by Ozzy)


e-------------------------------16----------19b~~~-16------16-----
b----------------------------------19-16-19-----------19b~~---19--
g----------------------16-18b~~~----------------------------------
d----------------16-18--------------------------------------------
a-------14-16/18--------------------------------------------------
e-14-16-----------------------------------------------------------

e---------------------------------------14-12-11------------------
b-------------------------(11t12)---------------14-12-11----------
g-------------------11-13-----------13-------------------13-11-13b
d----------11-13-14-----------------------------------------------
a-11-13-14--------------------------------------------------------
e-----------------------------------------------------------------


I have trouble with string noise, unless I palm mute it, but that's limiting.
I'm mainly concerned with the beginning of the first riff, that's the one I get the most noise out of

I guess this is similar to deadening the previous strings when sweeping
And we will weave in and out of sanity unnoticed
Swirling in blissfully restless visions of all our bleary progress
Glowing in radiant madness
#2
it looks like you already identified the problem, which is you pulling off the strings.

practice this SLOWLY, and by slow, i mean as slow as 30 bpm, or even lower if that's what it takes for you to be doing it correctly. Once you have COMPLETE control of what's happening, you can start working in a good habit to avoid accidentally pulling off. Once you get it down, you can bump up the speed a few bpm, repeat process until desired speed is reached.
#3
Your picking hand should be muting all strings above where you are playing, and your fretting hand should be muting everything below where you are playing. It sounds to me like your picking hand isn't doing its job.

Practice playing regular scales staccato - there should be zero noise from anything but the string you are playing.
Suhr Custom, Flaxwood Rautia or Grosh Tele thru
HBE Medicine Bawl Wah
Analogman BiComp
Texas Two Step OD
Fulltone Ultimate Octave/Fuzz
Boss CE-2
TC Nova Delay
SLO-100, 65 London or Bogner Shiva
Ask me about any of this stuff!