#1
Verse

e----------------|--------------
b--3--3--6--4--|--3--3--5--3
g--3--3--6--5--|--3--3--5--3
d--5--3--6--6--|--5--3--5--3
a----------------|---------------
E----------------|---------------

(Octave higher)

e--10--10--13--11
b--11--11--14--13
g--12--10--13--13
d---------------------
a---------------------
E---------------------

Play it slow.