#1
alright, so I have been writing my own music for a little while now, I generally don't follow any set chords and just kind of make up my own, as long as they sound good. Well I am recording a song right now and want to add some piano in the bridge....but i am having trouble figuring out what the chords I am playing are. The songs in the key of G btw.

Heres the first one:


e|-------0------------------|
B|-------5------------------|
G|------ 0------------------|
D|------ 0------------------|
A|-------3------------------|
E|--------------------------|

i am pretty sure this is a cmaj9, correct me if i am wrong.

now here's the second chord....i honestly have no idea what it is, my bass teacher said something about it maybe being a sus4 add9? i dont really know.

e|-------0------------|
B|-------7------------|
G|-------0------------|
D|-------0------------|
A|-------5------------|
E|---------------------|

any help is appreciated, thanks guys!