#1
I am looking for someone to tab out the vocal part on Landslide by Fleetwood Mac/Stevie Nicks on guitar.

Here is a good version of the song on Youtube: http://www.youtube.com/watch?v=FhNrrrCCTdA

Capo on the 3rd fret... I believe the chord formations he is using are C, G/B, Am7, G/B.

If you could help me I would appreciate if very much. I have tried figuring out the melody on guitar but I just can't seem to place it.

I am trying to record a version of this song with a guitar playing the vocal melody... I think this would be very cool. Special thanks credit on my album for whoever tabs it!

Thanks
#2
Hey. Here is the first 20 seconds or so;



e-----------------------------------------------------------------
B----------------------------------------------------------------
G----3-3-3--3-3-------------------3-3-3--33--------------
D--1---------------3--0--0h1---1-------------3--0--0h1-
A---------------------------------------------------------------
E----------------------------------------------------------------


e-----------------------------------------------------------------
B- -----3-4-3---------------------------------------------------
G-5-3---------5------5-5p3-----------------5-3--------------
D-----------------5p3---------3h5p3---1-1-----1h3p1--5-
A------------------------------------------------------------------
E-----------------------------------------------------------------



it's a bit of a tricky one to tab on account of how she isn't exactly singing in tune!
Last edited by willguitarist at Jul 2, 2011,
#3
Thanks a lot for your help. This sounds good and will be a good starting point!