#1
hi there

im desperately searching for any tabs for the song "febleness" by "prosopagnosia"

its a bass instrumental, i thought its pretty easy to transcribe, but i failed so hard.. just cant nail it down.


as it is one of my fav songs... i registered here to find someone who has some mercy and finaly help me to play it right.

thanks alot
Last edited by enki17 at Jul 6, 2011,
#2
hmm trying to bump..

uploaded the song on youtube: http://www.youtube.com/watch?v=x1JejqiaQG8


this is what i came so far with the first part, as i said, its not 100% correct, and it also might be tuned down ...

|-----------------------------------------------
|-----0--2-----5--3-----2h--3--2---------0--
|--0--------0--------0----------------3-3------
|-----------------------------------------------

-----------------------------------------<7>----<5>--
-----0--2-----5--3-----2h--3p--2---------------------
--0--------0--------0--------------(0)------------------
--------------------------------------------------------
Last edited by enki17 at Jul 6, 2011,
#3
hi, still nobody who can help me ???

what can i do to get some help with this song ?