#2
It's on Intense rock 2. I can send you the tabs since I have the pdf file for it. As for the video I'll try and find it.
#3
Quote by Skullivan
It's on Intense rock 2. I can send you the tabs since I have the pdf file for it. As for the video I'll try and find it.

That'd be great. Thanks a bunch.
#5
Not sure if Skullivan has sent you the PDF from Intense Rock II, but I'll tab it out for you, I use this as an exercise fairly regularly, I probably have the Intense Rock II PDF with the DVD...but it might be quicker to tab it out.

Brb!

EDIT:
   Dmaj                    Amaj
e|-14p10----------------10---------------------------------------------------|
B|----------------------------------10-14p10---------------------------------|
G|-------14p11----11h14------------------------------------------------------|
D|-------------12-------------11h14----------14p11---------------------------|
A|-------------------------12------------------------------------------------|
E|---------------------------------------------------------------------------|
   Bm                  F#m
e|-10p7-------------7--------------------------------------------------------|
B|----------------------------7-10p7-----------------------------------------|
G|------11p7---7h11----------------------------------------------------------|
D|-----------9-----------7h11--------11p7------------------------------------|
A|---------------------9-----------------------------------------------------|
E|---------------------------------------------------------------------------|
   Gmaj            Dmaj              Gmaj             Amaj
e|-7p3-----------7-----------------|-7p3-----------7--------5-9p5------------|
B|-----------------------3-7p3-----|-----------------------------------------|
G|-----7p4---4h7-------------------|-----7p4---4h7------6h9-------9p6--------|
D|---------5---------4h7-------7p4-|---------5--------7----------------------|
A|-----------------5---------------|-----------------------------------------|
E|---------------------------------|-----------------------------------------|


Here ya go!
If I've made any accidental mistakes just give me a shout.
The exercise pretty much outlines the chords of Canon in D, so it's a familiar progression to get your head round.
Last edited by Punk_Ninja at Jul 7, 2011,
#6
   Dmaj                    Amaj
e|-14p10----------------10---------------------------------------------------|
B|----------------------------------10-14p10---------------------------------|
G|-------14p11----11h14------------------------------------------------------|
D|-------------12-------------11h14----------14p11---------------------------|
A|-------------------------12------------------------------------------------|
E|---------------------------------------------------------------------------|
   Bm                  F#m
e|-10p7-------------7--------------------------------------------------------|
B|----------------------------7-10p7-----------------------------------------|
G|------11p7---7h11----------------------------------------------------------|
D|-----------9-----------7h11--------11p7------------------------------------|
A|---------------------9-----------------------------------------------------|
E|---------------------------------------------------------------------------|
   Gmaj            Dmaj              Gmaj             Amaj
e|-7p3-----------3-----------------|-7p3-----------3--------5-9p5------------|
B|-----------------------3-7p3-----|-----------------------------------------|
G|-----7p4---4h7-------------------|-----7p4---4h7------6h9-------9p6--------|
D|---------5---------4h7-------7p4-|---------5--------7----------------------|
A|-----------------5---------------|-----------------------------------------|
E|---------------------------------|-----------------------------------------|


Here ya go!
If I've made any accidental mistakes just give me a shout.
The exercise pretty much outlines the chords of Canon in D, so it's a familiar progression to get your head round.


I made one correction from my pdf file.
#7
Quote by Skullivan
   Dmaj                    Amaj
e|-14p10----------------10---------------------------------------------------|
B|----------------------------------10-14p10---------------------------------|
G|-------14p11----11h14------------------------------------------------------|
D|-------------12-------------11h14----------14p11---------------------------|
A|-------------------------12------------------------------------------------|
E|---------------------------------------------------------------------------|
Bm F#m
e|-10p7-------------7--------------------------------------------------------|
B|----------------------------7-10p7-----------------------------------------|
G|------11p7---7h11----------------------------------------------------------|
D|-----------9-----------7h11--------11p7------------------------------------|
A|---------------------9-----------------------------------------------------|
E|---------------------------------------------------------------------------|
Gmaj Dmaj Gmaj Amaj
e|-7p3-----------3-----------------|-7p3-----------3--------5-9p5------------|
B|-----------------------3-7p3-----|-----------------------------------------|
G|-----7p4---4h7-------------------|-----7p4---4h7------6h9-------9p6--------|
D|---------5---------4h7-------7p4-|---------5--------7----------------------|
A|-----------------5---------------|-----------------------------------------|
E|---------------------------------|-----------------------------------------|


Here ya go!
If I've made any accidental mistakes just give me a shout.
The exercise pretty much outlines the chords of Canon in D, so it's a familiar progression to get your head round.


I made one correction from my pdf file.

I really didn't want to bump this so late, but thank you guys so much.
EDIT: That seems to be the first part (Which is great, thank you) but do you happen to know if the second not-so-canon sounding lick is from that same DVD?
Last edited by nignog at Jul 8, 2011,
#8
Well your guy kinda improvised on the canon idea, so the only tabs you can get of that will probably be from the man himself.