#1
I'm trying to locate this tab and can't find it anywhere.

If you could provide me with a link to it I'd appreciate it.

I think the intro is:

E F A G ?

After that I believe it's a rhythm on the 6th (Open E) String and the chords are a few F's and then A G#?

Any help would be appreciated.

Thank you
#2
Here's what I got


Intro
|-----------------------------|
|-----------------------------|
|-----------------------------|
|-----------------------------|
|-2------3------6------5------|
|-0------1------4------3------|


|-----------------------------|
|-----------------------------|
|-----------------------------|
|-----------------------------|
|-2------3------7------6------|
|-0------1------5------4------|


Then
|---------------------------------------------------|
|---------------------------------------------------|
|---------------------------------------------------|
|---------------------------------------------------|
|-2-------3-----2---2-----3---2-----3-------5---6---|
|-0---0-0-1---0-0-0-0-0-0-1---0-0-0-1---0-0-3---4---|
UG FORUM
Your 21st Century Ant Farm
Corroborating Sturgeon's Law Since 2003