#1
Listen here: http://www.youtube.com/watch?v=3EAxm50p5JA
I've been trying to tab this song for a while, and this is what I have:

-------------------------------------------------
-------------------------------------------------
-------------------------------------------------
-12-12-12-12-12-12-12-14-12-12-12-12-12-12-12-12-
-------------------------------------------------
-------------------------------------------------

-------------------------------------------------
----12-15----12-15----12-15----12-15-15-15-15-15-
-14-------14-------14-------14-------------------
-------------------------------------------------
-------------------------------------------------
-------------------------------------------------

I'm having a lot of trouble figuring out the rhythm guitar parts, though, and my tab so far on lead guitar is far from complete. Any help is appreciated, even if you only figure out one piece.
"There's a fine line between child abuse and discipline. Take my dad for example; when I screwed up, my dad would electrocute me. And look at me today: flawless. Electrocution builds character." - Maddox
#2
------------------------------------------------------------
------------------------------------------------------------
-12 - 14 - 12 - 12 - 12 - 12 - 12 - 12---------------
------------------------------------------------------------
------------------------------------------------------------
------------------------------------------------------------


----------------------------------------------------------------------------------------------------
-------12---15------12---15-------12---15-------12---15-----------------------------------
---14------------14-------------14-------------14-------------14--14---12--12-------------
----------------------------------------------------------------------------------------------------
----------------------------------------------------------------------------------------------------
----------------------------------------------------------------------------------------------------


That's what i got from your start, cant figure out the fills and bends tho on this acoustic