#1
Share your favorite licks here, please provide tab so others can try these out, they can be original licks you've made up, or ones from songs, my favorite is a slash lick, it's what he uses before playing paradise city.

TAB

e--------------------------------------------------------------
b-------------------------------15----------------------------
g------------12-12-------------------------------------------
d--12h14-----------14-12---------14b--14---12v--------
a---------------------------------------------------------------
e---------------------------------------------------------------

h- hammer on
b- bend
v- vibrato
#3
e-----------------12------------------------
B-------------12-----15b17v--------------
G---14b16---------------------------------
D--------------------------------------------
A--------------------------------------------
E--------------------------------------------

Simple, old lick. Yet so freaking amazing. And put a hell of a lot of vibrato on that full step bend to the E, love it.
Where's Waldo?
#4
start of the john mayer hendrix cover of wait til tomorrow solo


e---------------------------------------------------------------------------------------|
B---------------------------------------------------------------------------------------|
G---14b-14b-14b~---14-12--14b15r14--12-14p12---------------------|
D--------------------------------------------------------------------14p12--14~---|
A--------------------------------------------------------------------------------------|
E--------------------------------------------------------------------------------------|
Last edited by xadioriderx at Jul 11, 2011,