#1
Accept's new album, "Blood Of The Nation", is an amazing comeback for Accept since Udo's departure. Now here on this site, there's only 2 songs tabbed. If not one. I just wanted to throw it out there that the rest of the album should be tabbed. It's a great album with a bunch of songs I'd like to learn. Please and Thanks. Keep headbangin'.
#2
I'll tab the solo to the title track, ok?


I'll post it lick by lick.

3:38
.
|------------------------------------------------------------------------------
|-------------------------------17b(19)-17-15h17p15p14h15--14--12--11~~---------
|-----------4-3-4-6b(8)r-6----------------------------------------------------
|--4-2-4-----------------------------------------------------------------------
|-------------------------------------------------------------------------------
|-------------------------------------------------------------------------------

3:48

|--------------------------------------------
|------------------------------------19(20)-
|--12--11-11s9-9h11b(12)r11~------------
|--------------------------------------------
|--------------------------------------------
|--------------------------------------------



And the song "The Abyss" is really easy to figure out, it goes like this:



|---------------------------------------
|---------------------------------------
|---------------------------------------
|--9---9---109---9---9-----10-12-12-10--
|--7---7---8-7---7---7-----8--10-10-8---
|----0---0-----0---0---0-0--------------

|----------------------
|----------------------
|----------------------
|--9---9---109---7---10
|--7---7---8-7---5---8-
|----0---0-----0-------


1:11

|----------------------------------------
|------(8)-------------------------------
|--7----9----2----5-----2----9----10-----
|--7----9----2----5-----2----9----10-----
|--5----7----0----3-----0----7-----8-----
|----------------------------------------
Last edited by 08L1V10N at Jul 14, 2011,
#3
Oh wow man, thanks bunches. I had a feeling that's how The Abyss riff went. Again, thanks a lot bro.