#1
The Fall Lyrics

Verse 1

She lies everytime she says she loves me...
I can see it in her eyes...
Vacant heart inside...
broken glass on the floor...
feels like I'm dying inside tonight...

Chorus 1

Above it all I sit here...
In my misery...
and I can see....
Hold my head above the clouds...
where I'm dreaming...
Dreaming of you....

Verse 2

Nights go bye...
I sit alone...
The changes have often to me...
The farther I fall the end looks more inviting...
Noone can stop this pain inside of me...

chorus 2

Above it all I sit here...
In my misery...
and I can see...
Hold my head above the clouds...
where I'm dreaming...
Dreaming of you....
I'm troubled I can't think...
You whisper and I faulter...
I fall down to my knees...
Escape from yesterday...
Leave tomorrow yesterday...
I see nothing in your eyes...

Verse 3

You were right...
I was wrong...
I said it before and you'll say it again...
True troubles in light...
I sit here on the floor..
Your voice echoes inside my head...

Chorus 3

Above it all I sit here...
In my misery...
and I can see..
Hold my head above the clouds...
where I'm dreaming...
Dreaming of you....
I'm troubled I can't think...
You whisper and I faulter...
I fall down to my knees...
Escape from today...
Leave tomorrow yesterday...
I see nothing I see nothing I see nothing I see nothing in your eyes...
in your eyes...
I see nothing I see nothing in your eyes...
there is nothing left..
______________________________________________________________


Verses:

e-------------------------------------------|
B-------3------------3------------3-------|
G-----2---2--------0---0--------0---0---|
D---0-------0----0-------0----0-------0-|
A-0------------3------------2-------------|
E-------------------------------------------|

e-------------|
B--------------|
G--------------|
D-----0-----0-|
A---0-----0---|
E-3-----2-----|

e--------------------------------===-----|
B-------3------------3------3~~~~-----|
G-----2---2--------0---0----0~~~~~--|
D---0-------0----0-------0--0~~~~----|
A-0------------3------------2~~~~-----|
E-------------------------------------------|

Chrous: G,D,C,Amin (strummed)