#1
     H        S S S S S S S S     S S S S  S S S S H           
E||-------------------------7-|--10--------------------------||
B||-----------------------7---|---------7-10-----------------||
G||---------------7-9---7-----|-------7----------7-9~--------||
D||-------------7-----9-------|-----7----------7-------------||
A||-----------9---------------|--------------7---------------||
E||---------------------------|------------------------------||


so right now im just barring the 7 and hitting 9 and 10 with my ring finger. but man, it sounds so crappy. is there a better way?

I think most of my trouble is in the muting.
"When losers say it's over with you know that it's a lie
The gods made heavy metal and it's never gonna die"
#2
This is how I would do it if you want the notes to ring out. I'm not sure if this is meant to ring out though.


All 7s are barre.

m= middle
r= ring
p = pinky

              m     p r           p        r       m           
E||-------------------------7-|--10--------------------------||
B||-----------------------7---|---------7-10-----------------||
G||---------------7-9---7-----|-------7----------7-9~--------||
D||-------------7-----9-------|-----7----------7-------------||
A||-----------9---------------|--------------7---------------||
E||---------------------------|------------------------------||


It then sounds crystal clear.
There's a good chance that what I've written above is useless and if you take any of the advice it's your own fault.
Last edited by Silent Murder at Jul 17, 2011,
#5
mute the notes....thats the whole point of barring is to mute and roll your finger like its a ball a t the end. that way you dont get that "shitty" chord noise in there.
GEARZ

Schecter Hellraiser
TS 808 modded tubescreamer
MXR six band EQ
boss DD-3 digital delay
Boss CE-5 Chorus Ensemble
ISP Decimator
1998 Marshall JCM2000 DSL 100
Avatar 4x12