#1
hey fellas, started doing some tapping, its good, but the problem is I dont know how to read them. Im learning this solo.

e|--------8t3h6p3-------8t3h6p3-------8t3h6p3-------|
b|-8t3h6p3-------8t3h6p3-------8t3h6p3--------------|
g|--------------------------------------------------|       (x2)
d|--------------------------------------------------|
a|--------------------------------------------------|
E|--------------------------------------------------|


e|-------------------------------------------------------------------------|
b|-14t10h12p10-15t10h12p10-14t10h12p10-15t10h12p10-17t10h12p10-17t10h12p10-|
g|-------------------------------------------------------------------------|
d|-------------------------------------------------------------------------|
a|-------------------------------------------------------------------------|
E|-------------------------------------------------------------------------|

  -------------------------------------------------------------------------|
  -15t10h12p10-14t10h12p10-15t10h12p10-14t10h12p10-15t10h12p10-17t10h12p10-|
  -------------------------------------------------------------------------|
  -------------------------------------------------------------------------|
  -------------------------------------------------------------------------|
  -------------------------------------------------------------------------|

  -------------------------------------19---------------------------------|
  -19t10h12p10-19t10h12p10-21t10h12p10------------------------------------|
  ------------------------------------------------------------------------|
  ------------------------------------------------------------------------|
  ------------------------------------------------------------------------|
  ------------------------------------------------------------------------|


so can somebody help me how to read this?
#2
Pretty simple man. In the first example, you'd tap the 8 and pull off to the 3 (t for tap), then hammer-on to the 6, then pull off to the 3, and repeat that. Second tab follows the same pattern. That's all there is to it. Basically, just tap the fret before the 't', then either hammer-on (h) or pull-off (p) to the next frets. Good luck and I hope I helped.
#3
Yes you were helpful but the problem is here:
so the first example i put my 1st and 3rd finger to 3rd and 6th fret, then tap the 8th fret, but how should i pull off, with the tap or with the left hand??
#4
As you probably know, the numbers say what fret the note is played on. And the letter in front of the number say how the notes are played.
For example, if it's a Pull-off there (p) or a Hammer-on (h), and sometimes a Tap (t). Be aware of that after you tap, you should do a pull-off even though it only say tap.

The first lick is simply a tap on the 8th fret, then a pull-off to the 3rd fret you will be holding with your index finger (opposite if you're a lefty). then you hammer-on to the 6th fret with one of your other fingers and then do a pull-off once again.
Since it's the same pattern on both the B and high E string, it wont be too hard to do.
If you wonder what a Pull-off and Hammer-on is, then search for it at YouTube.
Hope this helps!
#5
Thanks guys.. think I understand. so I kinda failed, i have put both of my fingers on 3 and 6th fret while It should be only 1st finger on 3rd fret then pull off then hammer then pull off again right?
#6
Quote by Voodoosnake
Thanks guys.. think I understand. so I kinda failed, i have put both of my fingers on 3 and 6th fret while It should be only 1st finger on 3rd fret then pull off then hammer then pull off again right?

Yeah, that's right. Have your index finger on 3rd fret. Tap 8th and pull off with the tapping finger. Then, hammer-on to the 6th fret, and then pull-off that, so going back to the 3rd fret.
#8
Quote by Voodoosnake
Thanks man I love you (no homo). Finally it's good^^ Cheers

No worries Good luck with the tapping,
#10
e|----------------------------------------------------------
B|0h1-1-1---1h3--1--0h1p0-0h1-1--1---1h3---0h1p0------------
G|-----0-0-----0--0------------0--0-----0-------------------
D|----------------------------------------------------------
A|3-----3-3-3---3--3------2-----2--2-2---2------------------
D|----------------------------------------------------------

e|----------------------------------------------------------
B|-0h1-1--1---0h1p0-0h1-1--1--0h1p0-------------------------
G|------0--0-------------0--0-------------------------------
D|----------------------------------------------------------
A|-0-----0--0-------0-----0--0------------------------------
D|----------------------------------------------------------

REPEAT


hello guyz can you please help how to read this tabs @@,
#11
Quote by micro102
e|----------------------------------------------------------
B|0h1-1-1---1h3--1--0h1p0-0h1-1--1---1h3---0h1p0------------
G|-----0-0-----0--0------------0--0-----0-------------------
D|----------------------------------------------------------
A|3-----3-3-3---3--3------2-----2--2-2---2------------------
D|----------------------------------------------------------

e|----------------------------------------------------------
B|-0h1-1--1---0h1p0-0h1-1--1--0h1p0-------------------------
G|------0--0-------------0--0-------------------------------
D|----------------------------------------------------------
A|-0-----0--0-------0-----0--0------------------------------
D|----------------------------------------------------------

REPEAT


hello guyz can you please help how to read this tabs @@,

I could do, but you have to post it in code, or Courier New, as it can't be read really at the moment.