#1
I've got the beginning down (not the harmonization), but I can't seem to quite get the solo in the middle and the whole end part. I could not find any tabs on this, so I thought I'd bring what I have to the internet. If anyone could help me tab the rest that would be great.

Song link: http://www.youtube.com/watch?v=xAnVAY-V9n4
This is the best quality I could find on Youtube. The song is on Spotify and iTunes(I think)

Here is what I have so far:

The song is in E minor, and the beginning riff appears to be in Phrygian mode.

Part 1 (I slide up to 9 because I find it easier, not sure if they do it)
e|---------------------------------------------------------------|
B|---------------------------------------------------------------|
G|--5--7--5--/9-------------------------------------------------| x6
D|---------------------------------------------------------------|
A|---------------------------------------------------------------|
E|---------------------------------------------------------------|

e|--------------------------------------------------------------|
B|--------------------------------------------------------------|
G|--12--10--9-------------------------------------------------| x2
D|---------------12--10--9--------9---------------------------|
A|-----------------------------12-------------------------------|
E|---------------------------------------------------------------|


Repeat Part 1

Part 2 (adds a trill on the first riff)
e|---------------------------------------------------------------|
B|---------------------------------------------------------------|
G|--5--7--5--/9------5--7--5--/9--9-10h9p--7-------------| x3
D|---------------------------------------------------------------|
A|---------------------------------------------------------------|
E|---------------------------------------------------------------|

e|--------------------------------------------------------------|
B|--------------------------------------------------------------|
G|--12--10--9-------------------------------------------------| x2
D|---------------12--10--9--------9---------------------------|
A|-----------------------------12-------------------------------|
E|---------------------------------------------------------------|

Part 3: the chords come in (E, C, A power chords)
e|-------------------------------------------------------------|
B|-------------------------------------------------------------|
G|-------------------------------------------------------------|
D|---------------------------------5-5-5-5-5-5-5-5-5-5-5-| Palm mute all of these.
A|-2-2-2-2-2-2-2-2-2-2-2----3-3-3-3-3-3-3-3-3-3-3-| The chords are galloped.
E|-0-0-0-0-0-0-0-0-0-0-0-----------------------------------|

e|---------------------------------------------------------------|
B|---------------------------------------------------------------|
G|---------------------------------------------------------------|
D|-2-2-2-2-2-2-2-2-2-2-2---------------------------------| Palm mute and gallop as well
A|-0-0-0-0-0-0-0-0-0-0-0---------------------------------|
E|---------------------------------------------------------------|

e|--------------------------------------------------------------|
B|--------------------------------------------------------------|
G|--------------------------------------------------------------| The three chords after the
D|--------------------------------5-5----555-----2-2--222-| first two are played very fast.
A|-2-2----222----2-2--222---3-3----333-----0-0--000-| This is played under the solo.
E|-0-0----000----0-0--000-----------------------------------|

h hammer-on
p pull-off
/ Slide up

If anyone could help me finish this song (War Cry, by the Expendables), that would be great. Here is a link to the song:

http://www.youtube.com/watch?v=xAnVAY-V9n4
Last edited by Trogger93 at Jul 24, 2011,