Page 1 of 2
#1
Right, this is inspired by that type out your favourite riff thread but not nearly as pointless. The idea is to copy and past the tab of one of your favourite riffs without telling what it is. Other people play the riff and guess. Simple as that
I'll start.
db|------------------------------------------------------------------0-------|
bb|-7-------8p7-----5-----5h7-5-0-----------------------------------0----|
gb|-----0-------0-----0-------------0-------2420------7-----7/9--------0-|
Db|---------------0--------------------------------4p0-0---0---------------|
Gb|-7-----7---------5---5---------------0--------------------7/9-----------|
Db|---------------------------------------------------------------------------|
#2

db|------------------------------------------------------------------0-------|
bb|-7-------8p7-----5-----5h7-5-0-----------------------------------0----|
gb|-----0-------0-----0-------------0-------2420------7-----7/9--------0-|
Db|---------------0--------------------------------4p0-0---0---------------|
Gb|-7-----7---------5---5---------------0--------------------7/9-----------|
Db|---------------------------------------------------------------------------|


Use Codes.
¤´¨留話 請留話 請在我說完後
¸.•´¸.•´¨¸.•¤¨哭泣我不在這裡 我不在那裡請在嗶一聲之後留
(¸.•´ (¸.•´ .•´(´¸.•¤´`¤下自己的秘密請在嗶一聲之後對話筒沾自喜請在嗶一聲之後對空氣唉聲嘆氣


我不在這裡 我人在哪裡 我想到哪裡¤

請在嗶一聲之後留下有聲的話題¤

請在嗶一聲之後分擔感情的問題¤


¤¤¤

#3
4'33



E|--------------------------------------------------------------------------|
A|--------------------------------------------------------------------------|
D|--------------------------------------------------------------------------|
G|--------------------------------------------------------------------------|
B|--------------------------------------------------------------------------|
E|--------------------------------------------------------------------------|

Quote by Bill43


I wouldn't know an Opeth song from an Egg McMuffin
#4
Nice ^ lol

Favorite scale:


|-------------------------
|---------------6-10------
|-----------7-9-----------
|-------7-8---------------
|-5-7-8-------------------
|-------------------------
Last edited by blake1221 at Jul 25, 2011,
#5
E:|0-0-0-0-0-0-0-0-0-0-0-0-0-0-0-0-0-0-2-0-5


EDIT: I was gonna post something serious, but I could not find a tab of it.
The content of this signature is pretty much irrelevant
Last edited by rock.freak667 at Jul 25, 2011,
#6
Quote by rock.freak667
E:|0-0-0-0-0-0-0-0-0-0-0-0-0-0-0-0-0-0-2-0-5


meshuggah's discography

that being the e below low e
"I specialize in driving a set like I'm driving a Lexus" - Uncle Mez
#7
Quote by blake1221
Nice ^ lol


Crap. I spoiled it though. Didn't read the OP
Quote by Bill43


I wouldn't know an Opeth song from an Egg McMuffin
#8

D|--------------------------------------------------------------------------|
G|--------------------------------------------------------------------------|
F|--------------------------------------------------------------------------|
C|--------------------------------------------------------------------------|
G|--------------------------------------------------------------------------|
C|---0--0--0--0--0--0--0--0--0--0--0----------------------------------------|


any ideas?
#9


E|-----------------------------------------|
B|-----------------------------------------|
G|-7-6-56543-2-1-2-4-3-23210---------------|
D|---------------------------4-3-4---------|
A|-----------------------------------------|
E|-----------------------------------------|

Last edited by Afroboy267 at Jul 25, 2011,
#10
Quote by wahappen
Crap. I spoiled it though. Didn't read the OP


Reading the OP is like reading the manual or instructions, anyways.
#11
I like this riff, it's in 5/4.


E||-----------------------------------|-----------------------------------|
B||-----------------------------------|-----------------------------------|
G||---------12~----7------------9-----|---------12~----7------------9-----|
D||-----10------------5------------7--|-----10------------5------------7--|
A||--0-------------------7s--8--------|--0-------------------7s--8--------|
E||-----------------------------------|-----------------------------------|


  E   E   Q     E  E  E   E  E  E     E   E   Q     E  E  E   E  E  E   
-----------------------------------|-----------------------------------|
-----------------------------------|-----------------------------------|
---------12~----7------------9-----|---------12~----7------------9-----|
-----10------------5------------7--|-----10------------5------------7--|
--0-------------------7s--8--------|--0-------------------7s--8--------|
-----------------------------------|-----------------------------------|


  E  E  E  E   E  E   E    E    E   E     E  E  E  E   E  E   E    E    E   E   
---------------------------------------|---------------------------------------|
---------------------------------------|---------------------------------------|
--8-----------10---------------12------|--8-----------10---------------12------|
-----6------------8----------------10--|-----6------------8----------------10--|
--------8------------10s--11~----------|--------8------------10s--11~----------|
---------------------------------------|---------------------------------------|


   E   E  E  E   E   E   E   E   E  E   
---------------------------------------|
---------------------------------------|
----------------15----------12---------|
--13----------------13----------10-----|
------11----------------11----------8--|
----------9----------------------------|


   E   E  E  E   E   E   E   E   E  E    
---------------------------------------||
---------------------------------------||
----------------15----------12---------||
--13----------------13----------10-----||
------11----------------11----------8--||
----------9----------------------------||
#12
e|---------------------------------------------------------------|
B|------8--8-----------------------10-10-10-10-10----------------|
G|-----------11-11-11-11--------11-------------------------------|
D|9--9--9--9--9--9--9--9-----------------------------------------|
A|7--7--7--7--7--7--7--7--10-10-10-10-10-10-10-10----------------|
E|------------------------8--8--8--8--8--8--8--8-----------------|


e|---------------------------------------------------------------|
B|------8--8-----------------------------------------------------|
G|-----------11-11-11-11-----------------------------------------|
D|9--9--9--9--9--9--9--9--9--9--9--9--11-11-11-11----------------|
A|7--7--7--7--7--7--7--7--10-10-10-12-12-12-12-12----------------|
E|------------------------8--8--8--8--10-10-10-10----------------|


This at the moment. Tigersuit.
#14
7
9
9
9
7
7 x13

7
7
8
9
9
7 x 3

5
5
6
7
7
5 x 16

Go straight to hell boy
sometimes I see us in a cymbal splash or in the sound of a car crash
Last edited by JohnnyGenzale at Jul 25, 2011,
#15
      ^     PM                               PM PM PM                    
      Q     E   E    E   E   E    E       E  S  S  E   E   E  E   Q      
D||---0--------(0)---L----------------|-----------------------0---------|
A||--10--------10----L--12---L--------|--------------------------12\----|
F||--13--------13----L----------(13)--|---L---------------13------------|
C||--11-----x--11----L-----------11---|---L-----------11----------------|
G||---0-----0---0----L------------9---|---L--9--9--9--------------------|
C||-----------------------------------|---------------------------------|


  ^                                                  
  Q    E  E  E  E  E   E      E  E  Q    Q    Q      
----------------0--L-------|-------------0----------|
--7-------------7--L--(7)--|-------------7----7\----|
--8-------8--L--8--L---8---|--L-----8----8----8\----|
--6----x--6--L---------6---|--L--x--6---------6\----|
--4----4--4--L---------4---|--L--4--4---------4\----|
---------------------------|------------------------|


  ^                              PM PM                
  Q    E   E   E  E  E  E     E  E  E  E  E  E  Q     
------------------0--L-----|--------------0----------|
----------(2)--L--2--L-----|-----------------4--L----|
--4--------4---L--4--L-----|-----------2-------------|
--2----x---2---L--------4--|--L-----4----------------|
--0----x---0---L--------4--|--L--4-------------------|
------------------------4--|--L----------------------|


          PM       PM PM                                 
   E   E  E  E  E  E  E  E     E  E    E  E  E  E  Q     
----------------------------|-------------5--------0----|
-------------5--L--------4--|--L--7--7g9-----9----------|
--(4)--------4--L--------4--|--L----------------6-------|
---4h--6-----6--L--6--6--6--|--L------------------------|
---4------4--4--L--4--4--4--|--L------------------------|
----------------------------|---------------------------|


   ^     PM                              PM PM PM                    
   Q     E   E   E   E   E    E       E  S  S  E   E   E  E   Q      
---0--------12---L----------------|-----------------------0---------|
--10----------------10------------|-------------------12------------|
--13------------------------(13)--|---L----------------------13\----|
--11-----x--------------11---11---|---L-----------11----------------|
---0-----0--------------------9---|---L--9--9--9--------------------|
----------------------------------|---------------------------------|


  ^                              PM PM                  
  Q    E  E  E  E  E   E      E  S  S  Q    Q    Q      
----------------0--L-------|----------------0----------|
--7-------------7--L--(7)--|----------------7----7\----|
--8-------8--L--8--L---8---|--L--------8----8----8\----|
--6----x--6--L---------6---|--L--x--x--6---------6\----|
--4----4--4--L---------4---|--L--4--4--4---------4\----|
---------------------------|---------------------------|


  ^                              PM PM                
  Q    E   E   E  E  E  E     E  E  E  E  E  E  Q     
------------------0--L-----|--------------0----------|
----------(2)--L--2--L-----|-----------------4--L----|
--4--------4---L--4--L-----|-----------2-------------|
--2----x---2---L--------4--|--L-----4----------------|
--0----x---0---L--------4--|--L--4-------------------|
------------------------4--|--L----------------------|


          PM       PM PM                                                        
   E   E  E  E  E  E  E  E     E  E  E   E  E  E  E    E      W                 
----------------------------|-----4------------4-----------|-------------------|
-------------5--L--------4--|--L-----4h--5--7-----7p--(0)--|-------------------|
--(4)--------4--L--------4--|--L---------------------------|-------------------|
---4h--6-----6--L--6--6--6--|--L---------------------------|-------------------|
---4------4--4--L--4--4--4--|--L---------------------------|-------------------|
----------------------------|------------------------------|-------------------|
#16
all new materials by periphery. officially love you
"I specialize in driving a set like I'm driving a Lexus" - Uncle Mez
#18


C#|---------------------7------------------------------7----------------------------------|
G#|-----------------------8~----------------------------8~----------------------10/12--|
E   |----------11----7----------7h9-----------7---------------11---------9--------------|
B   |-------9------9-----------------------10---10-------------------10-----10----------|
F#|-----7------------------------------7---------------------------7----------------------|
C#|---------------------------------------------------------------------------------------|
-
Last edited by NickTNT at Jul 25, 2011,
#19
|----------------------------------|----------------9--11-11---------------|
|--11---------------9------9-------|--------7---------------9-11-11--____--|
|-------11-------11----9-9---9--9--|----7-----7----------------------9-11--|
|-----------9--9-------------------|--5----------5-------------------------|

|----------------------------------|---------____------------____----------|
|----------11--------------9-------|----7--7-9-11-11-____----9-11-11____---|
|-----11-------11------9------9----|-----------------9-11-11--------9-11-11|
|--9----------------7--------------|--5------------------------------------|

|----------------------------------|---------------------------------------|
|-------11---------------9---------|---------------------------------------|
|---11------11-----9--9-----9------|-------------------------9---7---------|
|-9-------------7------------------|--5---0--5-0/9----7--7-----------------|

|----------------------------------|---------------------------------------||
|------------11-----9--9-----------|---------------------------------------||
|------11-11-----11------9-----9---|---------------------------------------||
|---9-----------------------7------|-5--5-5---5---5---5---7--7---7---7---8-||

|----------------------------------|------------6-6------------------------|
|---------11-----------9-----------|---------7--------7--7-----------------|
|-----11------------9--------------|------7--------------------------------|
|--9--------------7----------------|---5----------------------7------------|

|----------------------------------|---------------------------------------|
|---------9------------9-----x-----|--------7------------------------------|
|-----11------------9--------------|-----7---------------------------------|
|--9-----------x-7-----------------|--5----------7--7--7--7---7--7--7--8---|

|----------------------------------|---------------------------------------|
|--------------11--------------9---|----------7--____----------------------|
|-------11--11----------9--9-------|-------7-----7--9--9--7--9--7----------|
|--9--9------------7--7------------|--5--5------------------------7--8-----|

|----------------------------------|----------------____-------------------||
|---------------11---9-9-----------|-----------7----9/11--11---------------||
|-------11--11-----------9---------|--------7----------------9--10-11-9-11-||
|-9--9----------------------7------|--5--5---------------------------------||


Desperately trying so hard to play this bass line to all along the watchtower
#20
^just get stoned and play random shit
"I specialize in driving a set like I'm driving a Lexus" - Uncle Mez
#21
E|------5------------------------------------7-8-5--5-7-3--2---2--- |
B|-5-8---7---7-8-5--5-7-3---5-7-3/5----------------------3------|
G|----------------------------------------------------------------------|
D|----------------------------------------------------------------------|
A|----------------------------------------------------------------------|
E|----------------------------------------------------------------------|

Needled 24/7 Melody Riff By Children of Bodom
Last edited by pedersbr at Jul 25, 2011,
#22
||--------------|-----------------|-------------|--------------||
||o-------0-----|-------1-0h1p0---|-------0-----|-------------o||
||------0-----0-|-----2---------2-|-----0-----0-|---0-2-----2--||
||----------2---|---2-------------|---2-----2---|-0-----0-4----||
||o---2---------|-0---------------|-------------|-------------o||
||--0-----------|-----------------|-0-----------|--------------||


C F A# D# G C

"Satalites and Astronauts" by In Flames is my fav ATM
NT

BE QUICK OR BE DEAD SON
#23
|--------------------------| 
|--------------------------| 
|--------------------------| 
|--------------------------| 
|-8-5---3---4--8-5---3---4-| 
|-6-3-0-1-0-2--6-3-0-1-0-2-|




In all seriousness though, this atm, as i have been listening to this song's album a lot recently.

e|--------------------------------------------------------------|
B|--------------------------------------------------------------|
G|----------------------------------------------3---------------|
D|-------------------------8--------------------3-------------2-|
A|---7---7---7-8-7---7---7---7---7---7---7-8-7--1-------2-2---2-|
E|-0---0---0-------0---0-------0---0---0----------0-2-3-----3-0-|
Quote by oneblackened
win.

I thought I'd quote this because it's the one and only time I have recieved praise in The Pit in however many days i have been posting

third wave ska is garbage two tone is the best


Come
on
you
Tractor
Boys!
#24
Eb-----4-4-x-0---------------5-5-------------|
Bb-4h5-5-5-x-0-------0-------5-5-------------|
Gb-4---4-4-x-5------5--5/-6--6-6--1--------9-|
Db-4h6-6-6-x-6-----6---6/-7--7-7--2--------9-|
Ab-4-------x-6--6------6/-7-------2---9h11---|
Eb---------x-4----4----4/-5-------0----------|

Not even one of my favourite bands but still such a chill riff.
#25
Quote by homeless-john
Eb-----4-4-x-0---------------5-5-------------|
Bb-4h5-5-5-x-0-------0-------5-5-------------|
Gb-4---4-4-x-5------5--5/-6--6-6--1--------9-|
Db-4h6-6-6-x-6-----6---6/-7--7-7--2--------9-|
Ab-4-------x-6--6------6/-7-------2---9h11---|
Eb---------x-4----4----4/-5-------0----------|

Not even one of my favourite bands but still such a chill riff.


Say it ain't so?
#28
D|-----------------------------------------------------------------------------------------------|
A|-----------------------------------------------------------------------------------------------|
F|-----------------------------------------------------------------------------------------------|
C|-2------2---2-------5---4--------5-----5---5-------7---5---4----2------2---2-------5---4-------|
G|-2--------------------------2h5--5------------------------------2--------------------------2h5-|
D|-0--0-0---0---0-0-0---0---0------3-3-3---3---3-3-3---3---3---3--0--0-0---0---0-0-0---0---0-----|
      ...   .   .....   .   .        ...   .   .....   .   .   .     ...   .   .....   .   .

================================
Guitars 1 and 2:
D|-------------------------------|
A|-------------------------------|
F|-------------------------------|
C|-5----------5------------------|
G|-5--5-5-----5--5-5-----5-4-2-4-|
D|-3--3-3-----3--3-3-----3-2-0-2-|


The Led Zeppelin of metalcore.
you're a stone fox
#29
E |-------------------------|---------------------------|-------------------------|-------------------------|
 B |--------------8b---------|---------------------------|-------------------------|-------------------------| 
 G |----------7--------------|---------------------------|-------------------------|-------------------------|
 D |----/9------------7------|-(7)\/5--------------------|--------5---7---7B---5---|-------5-----------------|
 A |-------------------------|----------5-------5/7------|--5/7--------------------|-----------0-----3-----0-|
 E |-------------------------|--------------0------------|-------------------------|--------------0----------|



I love this riff. Simple yet kickass
Quote by ErikLensherr
Don't belittle it like that, your mom produces top quality stuff.



C4C
[thread="1339859"]Hammerhead[/thread]
[thread="1341152"]Anglerfish[/thread]

VOTE
Thrustor: 2012
#30
i have been so into dat haze lately man. on my cube, i just hit the flanger, add a lot of spring reverb, light tremelo and a lil' distortion, neck pickup and play that shit.
"I specialize in driving a set like I'm driving a Lexus" - Uncle Mez
#31
Quote by laid-to-waste
i have been so into dat haze lately man. on my cube, i just hit the flanger, add a lot of spring reverb, light tremelo and a lil' distortion, neck pickup and play that shit.


I add 3 chorus pedals, 2 auto-wah's, 5 phasers, 6 flangers, and 13 tremolo pedals.
you're a stone fox
#32
Quote by Saint78
I add 3 chorus pedals, 2 auto-wah's, 5 phasers, 6 flangers, and 13 tremolo pedals.


yes, but do you own a tophat?

because why bother if you don't have a tophat?

like, i was playing it in the children's playground, purely to raise a better breed of generative bluetents, and all i wore was a tophat and socks

the parents praised me
"I specialize in driving a set like I'm driving a Lexus" - Uncle Mez
#33
Quote by laid-to-waste
yes, but do you own a tophat?

because why bother if you don't have a tophat?

like, i was playing it in the children's playground, purely to raise a better breed of generative bluetents, and all i wore was a tophat and socks

the parents praised me


Yes I own several top hats, I play it every saturday at an elementary school, wearing a suit made with old top hats with a top hat pattern. The parents raped me.
you're a stone fox
#34
Quote by Saint78
Yes I own several top hats, I play it every saturday at an elementary school, wearing a suit made with old top hats with a top hat pattern. The parents raped me.


oh yeah? well i have thirteen necklaces. they're all different colours, and hand crafted by people in australia in the rooftop of a sex factory where they exclusively make top hats, condoms and wah pedals.
"I specialize in driving a set like I'm driving a Lexus" - Uncle Mez
#35
Quote by laid-to-waste
oh yeah? well i have thirteen necklaces. they're all different colours, and hand crafted by people in australia in the rooftop of a sex factory where they exclusively make top hats, condoms and wah pedals.


I have a necklace made from Osama bin Laden's penis.
you're a stone fox
#36
Quote by Saint78
I have a necklace made from Osama bin Laden's penis.


i have a penis made from a necklace's osama bin laden.
"I specialize in driving a set like I'm driving a Lexus" - Uncle Mez
#37
Quote by laid-to-waste
i have a penis made from a necklace's osama bin laden.


Well played.
you're a stone fox
#38

Eb|------------------------------------|
Bb|------------------------------------|
Gb|------------------------------------|
Db|------------------------------------|
Ab|-----------0h1------------0h1-0h1---|
Eb|-0--2-2--------2--0-2-2-------------|


It's the main riff to Rocket Queen, and it's pretty sweet.
Skip the username, call me Billy
#39
Quote by Saint78
Well played.


yankthough.
"I specialize in driving a set like I'm driving a Lexus" - Uncle Mez
#40
Quote by wahappen
4'33



E|--------------------------------------------------------------------------|
A|--------------------------------------------------------------------------|
D|--------------------------------------------------------------------------|
G|--------------------------------------------------------------------------|
B|--------------------------------------------------------------------------|
E|--------------------------------------------------------------------------|


Quote by aerosmithfan95

Eb|------------------------------------|
Bb|------------------------------------|
Gb|------------------------------------|
Db|------------------------------------|
Ab|-----------0h1------------0h1-0h1---|
Eb|-0--2-2--------2--0-2-2-------------|
You are now using UG Black.
You are now using UG Classic.


Listening to: Duke Ellington


I'm sick and tired of people calling America the stupidest country in the world. I personally think Europe is the stupidest country.
Last edited by Wolfinator-x at Jul 25, 2011,
Page 1 of 2