#1
Howdy folks.
Just could do with some help on this version of Slow Dancing in a Burning Room by John Mayer.
http://www.youtube.com/watch?v=rHyOfqiW5C0
Ive learnt most of the song in the past due to the fact its almost identical to the normal album version.

The only part I need help with is the breakdown at around 3 minutes.
I just seem to get a bit lost when working it out myself.
Any help with it is much appreciated as I think its a cracking version of the song.
#2
Hey!

That is a great breakdown and below is the tab!

There are a few little nuances that can really only be learned through the video and the timing is not reflected in the tablature but the tab is correct!

Have fun!


E||--------------------------------------|----------------------------------------|
B||--12-12----------------12---------|----12-12---12-12----10-9-10-9-|
G||---------11-13-13--------11-13-|----------------------------------------|
D||---9--9-----------------9-----------|-----9--9----9--9--------9--9--9--9--|
A||----------9-11-11-x-x-----9-11-|--0-------------------------------------|
E||--------------------------------------|-----------0-----------------------------|

--12-12---------------------------|
--12-12-------12-12-------------|
----------11-x---------11/13-----|
---9--9---------9--9----------11-|
-----------9------------9/11------|
---------------------------------9--|

--------------------------------------------------------------|
------12-----12-12---------12-12---10-9-10-9--------|
------------------------------------------11-9-11-9--------|
-------9-x-x--9--9----------9--9--------------------------|
--x-x---------0----x-x-x-x-------x-x---------------x-x-x-|
-------------------------------0------------------------------|

-----------------------------------------|------------------------------------------------------|
-----------------------------------------|------------------------------------------------------|
--9-9-9-11-----------9-9---11-9-----|--9h11-11-11-9--9-----------------9------------|
--9-9-9--9-x-x-x-x-9-9----9-9-x-x-|--9------9---9--9--9---9--9---------9h11-9-----|
-----------------------0-----------------|--0-----------------11-11-11-9-11-------------11-|
-----------------------------------------|--------------0---------------------------------------|

--------------------------------------------|
--------------------------------------------|
--9-----11-----9-----11-------9-11-9---|
--9------9------9------9-------9--9--9---|
-----x-x----x-x---x-x----x-x-----------x-|
--------------------------------------------|

--------------------------------------------------------||
--------------------------------------------------------||
--9--------9-9-9-----9------9---9--9---9--9---9-||
--9h11---9-9-9-----9------9---9--9---9--9---9-||
--0-----0----------0-9h11-11-11-11-11-11-11-||
-----------------------0--------------------------------||

~Ryan
Last edited by cados121 at Jul 27, 2011,