#1
i am trying to figure this song out and i am now stuck.The song is epilogue by kamelot. here is link

http://www.youtube.com/watch?v=EHlTANz7f7c

here is what i got for the intro


--------------------------------------------
------------------3------------------------
----------------5---5/7-------------------
---5---------5----------8--5---8/10----
---3--------------------------------------
------------------------------------------

--------------------------------------------
------------------3------------------------
----------------5---5/7----7---5~------------
---5---------5----------8----------------
---3--------------------------------------
------------------------------------------


and then it starts off the verse by picking a Gm chord.
Can someone help me figure out were it goes after that
#2
In G minor

i-bIII (Gm - Bbmaj)
i-bVI (Gm - Ebmaj)

The solo around 50 secs

Gm - Fmaj - Gm
Gm - Fmaj -Ebm
Gm - Fmaj - Gm x2

Around 1:12

Eb - Bb - Cm
Bb - F/A - Gm

F/A is a slash chord. Do you know about chord construction and inversions? It is basically an F chord with the 3rd in the bass.

Play an F power chord starting on the 3rd fret D string, then put your 2nd finger on the 5th fret E string.
Last edited by mdc at Jul 26, 2011,
#3
thanks you so much for the help.this has been killing me.lol.i cant wait to try this and yeah,i know about chord construction and all that