#1
Hey,
I am a little OCD when it comes to having the correct tabs, but there are just not any, so I have to use my own judgement based on videos and by ear.
http://www.youtube.com/watch?v=bOnS3ozPg9M&feature=related


CAPO 4
INTRO
E|--0---------0--------------0------------0-----------
B|--1---------1--------------1------------0-----------
G|--2---------0--------------0------------0-----------
D|--2---------2--------------0------------2-----------
A|--0---------3--------------2------------2-----------
E|--0------------------------3------------0-----------

VERSE
This last chord is where I am having trouble.
I can't tell what notes he is playing.

E|---------------------------------------------------
B|----1---------1--------------1-----------------------
G|----2---------0--------------0-----------------------
D|---------------------------------------2-----------
A|--0--------- 3-----------------------2-----------
E|--------------------------3-----------0--2----4-----

Or is he playing this?
E|---------------------------------------------------
B|----1---------1--------------1-----------------------
G|----2---------0--------------0-----------------------
D|---------------------------------------2-----------
A|--0--------- 3------------------------2-----------
E|--------------------------3------------0----4-----
#2
i think ist just the e minor chord (or G# in this case with the capo) 6th string fourth fret, fifth string sixth fret fourth string sixth fret and third string fourth fret
#3
But if you listen closer you can him hear him play another note and you can see him playing the eminor chord and then plucking the e string. but I cant tell what notes he is playing
#4
maybe those last notes are harmonic.cant really hear well.yknow, he plays the third string 4th fret and at the same time something that sounds good harmonically on the e string, maybe an octave or something
#5
Look at the video at 0:44 and it looks he has the E chord. but he is plays that note with 2nd fret and 4th fret on the e string