#2
eb|------------------------------------------------------------------------------
Bb|--------------------------------------------------------------7*--------------
Gb|--11-11-----------------------------------------4-4------------7*---------
Db|--12-12----------------------------0h7h0-----5-5---7*------------------
Ab|--12-12-------------------0h5h0--------------5-5------------------------
Eb|--10-10-0h5h0-0h3h0-----------------------3-5-------------------------

Thats all I have for now, but it sounds sorta kinda right :/ I know the chords are right, and it seems to be in half step, since thats what my guitar was in.
Last edited by Mean Mr Mustard at Aug 11, 2011,
#3
Quote by Mean Mr Mustard
eb|------------------------------------------------------------------------------
Bb|--------------------------------------------------------------7*--------------
Gb|--11-11-----------------------------------------4-4------------7*---------
Db|--12-12----------------------------0h7h0-----5-5---7*------------------
Ab|--12-12-------------------0h5h0--------------5-5------------------------
Eb|--10-10-0h5h0-0h3h0-----------------------3-5-------------------------

Thats all I have for now, but it sounds sorta kinda right :/ I know the chords are right, and it seems to be in half step, since thats what my guitar was in.



Thanks so much man. I appreciate the help. If you figure out anymore, be sure to post it.
  • Beer
  • Friends
  • Producing and Recording
  • Sitcoms
  • Eastern Kentucky University
  • Dead Fret


My ambition is handicapped by laziness
#4
No offense by any means, but Mustard's tab is kinda far off the mark. The first chord's minor, not major and its a vi chord not a V chord and the second one is a I chord. Also the hammer on's are not even close, and the harmonics aren't quite right. He is right though that its tuned a half step down.

Intro

--2--------------------------------------3------------------------
--3--------------------------------------3------------+7--------
--4--------------------------------------4-------+5------+7----------
--4------------------------------7------5---+7--------------------
--2--------------5------5h7h9---h9--5-----------------------
--------3h5h7----h7------------------3----------------------

Verse

Bmadd9 Gadd9

--7------------------------------
--7-------------3-----------------
--7-------------2----------------
-11-------------0-----------------
--9-------------2----------------
--7-------------3----------------

The only chords they really use are vi, V and I (key of D major/B minor) but I didn't listen to the whole song...but that should get you started.
Last edited by Autopoietic Boy at Aug 12, 2011,
#5
Quote by Autopoietic Boy
No offense by any means, but Mustard's tab is kinda far off the mark. The first chord's minor, not major and its a vi chord not a V chord and the second one is a I chord. Also the hammer on's are not even close, and the harmonics aren't quite right. He is right though that its tuned a half step down.

Intro

--2--------------------------------------3------------------------
--3--------------------------------------3------------+7--------
--4--------------------------------------4-------+5------+7----------
--4------------------------------7------5---+7--------------------
--2--------------5------5h7h9---h9--5-----------------------
--------3h5h7----h7------------------3----------------------

Verse

Bmadd9 Gadd9

--7------------------------------
--7-------------3-----------------
--7-------------2----------------
-11-------------0-----------------
--9-------------2----------------
--7-------------3----------------

The only chords they really use are vi, V and I (key of D major/B minor) but I didn't listen to the whole song...but that should get you started.



I appreciate the help. Thanks so much.
  • Beer
  • Friends
  • Producing and Recording
  • Sitcoms
  • Eastern Kentucky University
  • Dead Fret


My ambition is handicapped by laziness
#6
I like this post ,because I learn some knowledge from it.Thank you very much.