#2
Just a minute. I'll have to get my capo.

EDIT

Capo 2nd fret



e|----2/3-2-3-------------2-0-0h2-------------0-2-2h3--5---------------------|
B|--------0-0---0--------3------------------------0-------7------------------|
G|----------------------2----------2-------------------------5/--------------|
D|---------------------------------------2-----------------------------------|
A|-------------------0-------------------3-----------------------------------|
E|-0-------------------------------------------------------------------------|


Variation at the end

e|--0-2-2h3---5-2------------------------------------------------------------|
B|-----------------3---------------------------------------------------------|
G|---------------------------------------------------------------------------|
D|---------------------------------------------------------------------------|
A|---------------------------------------------------------------------------|
E|---------------------------------------------------------------------------|


Please correct me, if you find any faults. Hope it helps

EDIT 2: The chords looked dumb.
Last edited by emil_sej at Aug 11, 2011,
#3
hi there. thanks a lot =) sound's great.

my new mic-set is already ordered. ill record it later an post a link in this thread. thanks again for your very fast help =)))

btw. there is another thread of me recording a more complex song from mad slanger - fact-fiction.

i already got the chords + intro from ug (http://tabs.ultimate-guitar.com/m/mads_langer/fact_fiction_tab.htm)

but the guy from the cover play's a different tuning then the one from the intro. can u give me a hint what tuning i can use after the beginning like he did? the other things (chords ive already figured out thanks to the ug-songentry ^^)

-> cover:
http://www.youtube.com/watch?v=99Sornpze0M

=]]
#4
No problem. Looking forward to hear your cover!

Mads Langer? Of course I know him - I am a Dane, am I not?
From what I can hear/see he is playing the song in standard tuning (EADGBe) and with a capo on the 6th fret. But he is not playing along with the tab you showed me. He is, in the intro, playing as far as I can see:

Capo 6th fret

e|-------------------0--------------------------0--------------------------|
B|--1-----1---1---3-----------1------1---1---3-----------------------------|
G|----0-----0-------------------0------0-----------------------------------|
D|------2-------------------------2----------------------------------------|
A|--3-------------------------0--------------------------------------------|
E|-------------------------------------------------------------------------|


That's a C and an Am7