#1
Can anyone please find/make tab for the song On Any Other DAy by the Police? It seems fairly simple but I'm not very good at figuring things out by ear. Thanks
#2
Bass tab OK?


Title: On Any Other Day
Artist: The Police
Album: Reggatta De Blanc
Words: Stewart Copeland
Music: Stewart Copeland
Copyright: 2003
Tabber: Ryan Hrbacek
Tempo = 180
Sting

Legend
L - tied note
x - dead note
h - hammer on/pull off
b - bend
s - slide
~ - vibrato
g - ghost note
> - accentuated note
t - trill
M - palm mute
. - staccato
P - popping (bass)
S - slapping (bass)
+ - tapping
W - wide vibrato
< - fade in
w - whammy bar
= - tremolo picking
v - brush up
^ - brush down
V - pick stroke up
n - pick stroke down


G |-------||---------------------------|---------------------------||----||
D |-------||o------------5--5----------|--7--7--------5--5--------o||----||
A |-------||o0--0--7--7--------7--7----|--------7--7--------7--7--o||----||
E |-------||---------------------------|---------------------------||----||


---------------------------|----------------------------|
o------------5--5----------|--7--7--------5--5----------|
o0--0--7--7--------7--7----|--------7--7--------7--7----|
---------------------------|----------------------------|


----------------------------|----------------------------|
--------------5--5----------|--7--7--------5--5----------|
--0--0--7--7--------7--7----|--------7--7--------7--7----|
----------------------------|----------------------------|


----------------------------|---------------------------||
--------------3--3----------|--5--5--------3--3--------o||
--------5--5--------5--5----|--------5--5--------5--5--o||
--3--3----------------------|---------------------------||


----------------------------||-------------------5-------|
--5--5--------3--3----------||o------3--------5----------|
--------5--5--------5s------||o---5-----3-----------0L---|
----------------------------||-3-------------------------|


--------0--------2--7------||----------------------------|
-----2-----0--------------o||--------------5--5----------|
--0-----------------------o||--0--0--7--7--------7--7----|
---------------------------||----------------------------|


----------------------------|----------------------------|
--7--7--------5--5----------|--------------3--3----------|
--------7--7--------7--7----|--------5--5--------5--5----|
----------------------------|--3--3----------------------|


----------------------------||---------------------------|
--5--5--------3--3----------||o------------5--5----------|
--------5--5--------5--5----||o0--0--7--7--------7--7----|
----------------------------||---------------------------|


----------------------------|----------------------------|
--7--7--------5--5----------|--------------5--5----------|
--------7--7--------7--7----|--0--0--7--7--------7--7----|
----------------------------|----------------------------|


----------------------------|----------------------------|
--7--7--------5--5----------|--------------3--3----------|
--------7--7--------7--7----|--------5--5--------5--5----|
----------------------------|--3--3----------------------|


---------------------------||----------------------------||
--5--5--------3--3--------o||--5--5--------3--3----------||
--------5--5--------5--5--o||--------5--5--------5s------||
---------------------------||----------------------------||


-------------------5-------|--------0--------2--7------||----||
o------3--------5----------|-----2-----0--------------o||----||
o---5-----3-----------0L---|--0-----------------------o||----||
-3-------------------------|---------------------------||----||


---------------------------|---------------------------||
o---------------------2----|--------------------------o||
o--------------------------|-----------2--2--0--0-----o||
-7--7--7--0--5--5--5-------|--0------------------------||


----------------------------|----------------------------|
--------------5--5----------|--7--7--------5--5----------|
--0--0--7--7--------7--7----|--------7--7--------7--7----|
----------------------------|----------------------------|


----------------------------|----------------------------||
--------------3--3----------|--5--5--------3--3----------||
--------5--5--------5--5----|--------5--5--------5--5----||
--3--3----------------------|----------------------------||


---------------------------|----------------------------|
o------------5--5----------|--7--7--------5--5----------|
o0--0--7--7--------7--7----|--------7--7--------7--7----|
---------------------------|----------------------------|


----------------------------|----------------------------|
--------------5--5----------|--7--7--------5--5----------|
--0--0--7--7--------7--7----|--------7--7--------7--7----|
----------------------------|----------------------------|


----------------------------|---------------------------||
--------------3--3----------|--5--5--------3--3--------o||
--------5--5--------5--5----|--------5--5--------5--5--o||
--3--3----------------------|---------------------------||


----------------------------||-------------------5-------|
--5--5--------3--3----------||o------3--------5----------|
--------5--5--------5s------||o---5-----3-----------0L---|
----------------------------||-3-------------------------|


--------0--------2--7------||----||---------------------------|
-----2-----0--------------o||----||o---------------------2----|
--0-----------------------o||----||o--------------------------|
---------------------------||----||-7--7--7--0--5--5--5-------|


---------------------------|||
--------------------------o|||
-----------2--2--0--0-----o|||
--0------------------------|||
#3
Thank You! There doesn't happen to be a guitar part around somewhere, too, does there?
#4
I couldn't find one. Just those crappy chord tabs. The base probably is more important than the guitar in that song, though. The guitar doesn't do much real leads, it's mainly a bunch of chords done in a regea style--pretty percussive for the most part.
#5
Thanks you for looking. I guess I'll work it out from one the chord tab. Thank You!
#6
Hey, no prob. Wish I could tab from ear--great song and I would tab it for you.

If you do figure it out and tab it, feel free to PM me with it.