#1
Right I have the rhythm for a rap/hip-hop song in my head, but I can't put my finger on who the artist is.

Here it is figured out on guitar, well just a bit of it:

e|---------------------------------------------------------------------------|
B|---------------------------------------------------------------------------|
G|---------------------------------------------------------------------------|
D|---------------------------------------------------------------------------|
A|-------------2-3-------------------2-3-----------------2-3--------------|
E|-0-5--5--5----------0-5--5--5----------0-1--1--1--------------------|

It's not that accurate but please can you help me with this!
Thanks

Also if this is in the wrong thread/forum part, please direct me to the correct one!
#4
Where's the rhythm? Can you tab out the rhythm as well? There are many different ways to play that rhythm wise.
#6
Errrr just done it on GP quickly it's:

. E Q Q Q S S
E||------------------------||
B||------------------------||
G||------------------------||
D||------------------------||
A||--------------------2-3-||
E||--0--5----5----5--------||

So 8th, quarter, quarter, quarter, 16th, 16th (In 4:4 timing)

EDIT: Sorry it's not lining up when I post it for some reason...
Last edited by Sweet Laddio at Aug 16, 2011,
#8
isnt that ice baby or something like that?
Roses are red
Voilets are blue
The only bulge in my pocket is my wallet
No i'm not happy to see you
#9
I can't remember the rappers voice that's the thing that's annoying me too. I'd probably be able to name the song if I remembered his voice
#11
. E Q Q Q S S 
E||------------------------||
B||------------------------||
G||------------------------|| 
D||------------------------||
A||--------------------2-3-||
E||--0--5----5----5--------||


just putting it in line for you
Click here to hear my BOB DYLAN (Blowing in the Wind) out right now May 2k17
#12
Okay I smoked a bowl and played that repeatedly for 20 minutes and I think it might be miss new booty.
This is why I don't like arguing on the internet.
Quote by damian_91
If only you could back that statement up.
Quote by Zombee
Wolfgang's Philadelphia Study. Look it up yourself.
Quote by damian_91
No need to, absurd generalizations aren't my thing.
#13
Quote by laid-to-waste
. E Q Q Q S S 
E||------------------------||
B||------------------------||
G||------------------------||
D||------------------------||
A||--------------------2-3-||
E||--0--5----5----5--------||


just putting it in line for you


Derp still doesn't look in line on my screen :l
And still no progress

http://www.youtube.com/watch?v=H91kWpUNiwU
This sounds very similar, it could be it....