#2
Here you go. This sounds 100% right to me, but it could be wrong. Let all the notes ring. The little fill-variation thing at the end could be played differently, but that seems to be the way that sounds the best. You'll need to listen to the song for timings. Enjoy

e|----------------------------------------------|
B|-----------6-------------------6--------------|
G|------8--------8-------8------------8---------|
D|----------------------------------------------| x2
A|--8----------------8--------------------------|
E|----------------------------------------------|


e|----------------------------------------------|
B|-----------6-------------------6--------------|
G|------8--------8-------8------------8---------|
D|----------------------------------------------|
A|--6----------------6--------------------------|
E|----------------------------------------------|


e|----------------------------------------------|
B|-----------6-------------------10h6-----------|
G|------8--------8-------8------------8---------|
D|----------------------------------------------|
A|--8----------------8--------------------------|
E|----------------------------------------------|
Last edited by guitar ben94 at Aug 21, 2011,
#3
Thank you very much, I wasn't expecting a reply that fast. I would have responded sooner but I lost my password.
#4
No worries :-) And I came into the forum, and your thread was as the top. It was quite easy to figure out, so I was able to do it pretty fast. Have fun with it
#5
Quote by AddDerezzed
Thank you very much, I wasn't expecting a reply that fast. I would have responded sooner but I lost my password.


I'm really not very clear, but I believe I can not go wrong!