#1
so im in love with the song called "sit still" by brightwood. im hopeing to sing it to the girl of my dreams. ive been trying to find out what chords are used but i have no luck.. please help me. the song has an acoustic version so they even play the chords i just cant put a name to them. thanks for the help.
#2
basically alternating D and G over and over...In the beginning of the song use palm muting as well when playing it..... There may be an A chord in there at one point but my speakers on the computer aren't all that great and hard for me to hear.... So mainly alternate between the D and G chord and you should be good to go.....
#3
thank you so muchh! i just needed someplace to stat out im sure i can get it from there
#4
So my internet box totally broke while I was typing this out, but here you go:


Chords: Bm (x24432), Dmaj (xx0232), A* (x00220), E* (x7x9xx), D* (x5x7xx), Gmaj (320033)


Intro Diddy:
e|---------------------------------------------------------------------------|
B|---------------------------------------------------------------------------|
G|---------------------------------------------------------------------------|
D|-------0--4b5r4-------------0------0---2------------------------------|
A|-----2----------------------------4----------4---2-----------------------|
E|---------------------------------------------------------------------------|

Rest of intro:: Bm, A*, Dmaj, E*, D*::

Bm Dmaj Gmaj
You can't sit still.
Bm Gmaj Dmaj A***
I watched your movement from the corner
Bm Gmaj Dmaj
I catch my eye.
Bm Gmaj Dmaj A* DMaj
Imagining you here right by my side.

Gmaj Bm Dmaj A*
The fire in your eyes is blazing, and it burns right, right through me.
Gmaj Bm A* Dmaj
Little girl your so amazing.
Gmaj Bm Dmaj A*
Don't you know you drive me crazy, and I'd love to get to know you.
Gmaj Bm A* Dmaj
Here I am so won't you take me and blow me away.

Solo Riff::
e|---------------------------------------------------------------------------|
B|---------------------------------------------------------------------------|
G|---------------------------------------------------------------------------|
D|------x--x------4b5r4-------0------0---2b(4)------------- -----------|
A|------x--x------------------------4---------------------------------------|
E|---------------------------------------------------------------------------|

e|---------2------------5--------------10------------------------------------|
B|-------- 5b7---------8b10---------13b15-------------------------------|
G|-----------------------------------------------------------------------------|
D|--4--4-----------------------7--7-----------------------------------------|
A|--2--2--------5--5----------5--5-----------------------------------------|
E|---------------3--3---------------------------------------------------------|


Pretty sure the rest of the song is the same chords, but that's all I have time for. Good luck with that girl :-)