#1
ok so i wrote this while bored today and wanted some opinions on the riff. I couldn't record it as my mic isn't at home. the open string on the low c is palm muted and so is all the riff until the last note in the last bar of the tab. Try this out if you want it is in drop c tuning and i was wondering what everyone thought of it.

|-----------------------------------------------------------------------------------|
|-----------------------------------------------------------------------------------|
|-----------------------------------------------------------------------------------|
|----------9---------10----------8-----------7-----------------------------------|
|----------7----------8-----------6-----------5----------------------------------|
|--000-0----000-0----000-0-----000-0-------------------------------------| X2

|-----------------------------------------------------------------------------------|
|-----------------------------------------------------------------------------------|
|----------------9---------------10-------------8-------------------7------------|
|----------------9---------------10-------------8-------------------7------------|
|-----------------------------------------------------------------------------------|
|-----0-----0--------0-----0---------0----0----------0-------0-----------------| X2

|-----------------------------------------------------------------------------------|
|-----------------------------------------------------------------------------------|
|-----------------------------------------------------------------------------------|
|-----------------------------------------------------------------------------------|
|-----------------------------------------------------------------------------------|
|--------2v------------------------------------------------------------------------|
natural harmonic and vibrato above the nut

|-----------------------------------------------------------------------------------|
|-----------------------------------------------------------------------------------|
|-----------------------------------------------------------------------------------|
|----------9---------10----------8-----------7-----------------------------------|
|----------7----------8-----------6-----------5----------------------------------|
|--000-0----000-0----000-0-----000-0-------------------------------------| X2

|-----------------------------------------------------------------------------------|
|-----------------------------------------------------------------------------------|
|----------------9---------------10-------------8-------------------7------------|
|----------------9---------------10-------------8-------------------7------------|
|-----------------------------------------------------------------------------------|
|-----0-----0--------0-----0---------0----0----------0-------0-----------------| X2

|-----------------------------------------------------------------------------------|
|-----------------------------------------------------------------------------------|
|-----------------------------------------------------------------------------------|
|-------------------------------------------5------8------7----------------------------|
|------------------------5-----8-----7-------------------------------------------------|
|-------5-----8----7------------------------------------------------------------------|
pm --------------------------------------------------| pinch harmonic last note.