#1
Can some one help me figure out this song for guitar all i was able to come up with was the into/chorus wich i believe to be G#-F-C#-D# or in tab form for those not familiar with chords
e----------------
b----------------
g----------6---8
d-6---3---6---8
a-6---3---4---6
e-4---1---------

Can someone please help me figure out this song.
Wanting To Be Some Else Is A Waste Of The Person You Are

- Kurt Cobain
#3
This is gonna take awhile I suck at reading sheet music. maybe if i can find the tutorial that shows you the fingering of every chord I could figure it out. you know where that tutorial is? I tabed the song as its shown on the site I have no clue on wher to figure the interlude because its got a big preview box in the way it only shows the first page for free
HERES WHAT I GOT:
Chords
Intro/Chorus
e-1--0--0--2-
b-0--0--1--1-
g-0--0--0--2-
d-0--0--2----
a-2--2--0----
e-3--0-------

Verse
e-1--1------------2--0--3--2---
b-1--0------------4--1--3--3---
g-2--0------------3--0--2--2---
d-0--0--4Times-4--2--0--0---
a----2------------2--0---------
e----3----------------------
Wanting To Be Some Else Is A Waste Of The Person You Are

- Kurt Cobain
Last edited by NirVanA19866 at Sep 6, 2011,
#4
power chord version
intro/chorus
g-e-a-d

Verse
d-g-4x-b-a-d-d-2x

chorus
verse
chorus
Interlude
Chorus

No idea where to start figuring out the interlude
Wanting To Be Some Else Is A Waste Of The Person You Are

- Kurt Cobain