#1

Please tell me what you think.

D|-------------------------------------------------------------------------|
A|---------10------------13------------13----------13----------------------|
F|---10--10--------10--10--------10--10--------10----10--------------------|
C|-12--12--------12--12--------12--12--------12--12------------------------|
G|-------------------------------------------------------------------------|
C|-------------------------------------------------------------------------|

D|-------------------------------------------------------------------------|
A|-------10-------------10-------------10-------------10-------------13----|
F|---10-----x4------10-----x4------10-----x4------10-----x2------10-----x2-|
C|-12--12---------10--10---------12--12---------10--10---------10--10------|
G|-------------------------------------------------------------------------|
C|-------------------------------------------------------------------------|

Guitar 2

D|-------------------------------------------------------------------------|
A|-------------------------------------------------------------------------|
F|-------------------------------------------------------------------------|
C|-10-------09-------02--------0-------10-------12-------09-------05-------|
G|-10-x8----09-x8----02-x12----0-x4----10-x8----12-x8----09-x8----05-x8----|
C|-10-------09-------02--------0-------10-------12-------09-------05-------|

Guitar 1 (Goes with Guitar 2)

D|-------------------------------------------------------------------------|
A|-13-------12-------17-------15-------13-------15-------12-------08-------|
F|--x-x8-----x-x8-----x-x12----x-x4-----x-x8-----x-x8-----x-x8-----x-x8----|
C|-10-------09-------14-------12-------10-------12-------09-------05-------|
G|-------------------------------------------------------------------------|
C|-------------------------------------------------------------------------|

(Variation)

D|-------------------------------------------------------------------------|
A|---13-------12-------17-------15-------13-------15-------12-------08-----|
F|------x4-------x4-------x6-------x2-------x4-------x4-------x4-------x4--|
C|-10-------09-------14-------12-------10-------12-------09-------05-------|
G|-------------------------------------------------------------------------|
C|-------------------------------------------------------------------------|
Last edited by Drewste720571 at Sep 7, 2011,