#1
Just made up some exercises for finger independence. Give these a try and let me know what you think.

Exercise 1

e-------------------------------------------------------------
b-------------------------------------------------------------
g-------------------------------------------------------------
d-------------------------------------------------------------
a----5--4---------5--4---------5--4---------5--4---------
e-----------6--7---------6--7---------6--7---------6--7--

Exercise 2

e-------------------------------------------------------------
b-------------------------------------------------------------
g-------------------------------------------------------------
d-------------------------------------------------------------
a-----------7--6-----------7--6---------7--6---------7--6
e----4--5----------4--5----------4--5---------4--5-------

Exercise 3

e-------------------------------------------------------------
b-------------------------------------------------------------
g-------------------------------------------------------------
d-------------------------------------------------------------
a----7--5---------7--5-----------7--5---------7--5-------
e-----------4--6---------4--6-----------4--6--------4--6-

Exercise 4

e-------------------------------------------------------------
b-------------------------------------------------------------
g-------------------------------------------------------------
d-------------------------------------------------------------
a----4--6---------4--6-----------4--6---------4--6---------
e-----------7--5---------7--5-----------7--5---------7--5--
Regards
Last edited by MrTinkle at Sep 16, 2011,
#2
There's a dedicated section of the site for lessons - if you want to share things like this please submit them there in future.

http://www.ultimate-guitar.com/lessons
Actually called Mark!

Quote by TNfootballfan62
People with a duck for their avatar always give good advice.

...it's a seagull

Quote by Dave_Mc
i wanna see a clip of a recto buying some groceries.


stuffmycatswatchontv.tumblr.com