#1
Can somebody help me complete this tab? I've been listening for a couple weeks now and I am kinda OCD when it comes to the right notes. Heres what I got from this video: http://www.youtube.com/watch?v=kbsNFF99jpU


-----------------------------------------
-----------------------------------------
-----------------------------------------He plays each of the two notes several times.
------------------4----4----------------
----4-----4---1-----2------------------
-1-----2--------------------------------

Here is where I am stuck in the chorus: At 1:25 on the video

-----------------------------------------
-----------------------------------------
--------9--------------------------------
-----7--------9-------------------------
--5---------7---------------------------
----------5------5----------------------
then he goes to the second fret, then the middle of guitar neck and I am just stumped.