#1
http://tabs.ultimate-guitar.com/p/paramore/monster_ver7_tab.htm


Intro


e|------------------------------------------------------------------|
B|-------3---------------3---------------3-------------4------------|
G|---4-------4---4---4-------4---4---4-------4---4---4---4---4----4-|
D|-2---2---2---2---2---2---2---2---2---2---2---2---1---1---1---1----|
A|------------------------------------------------------------------|
D|------------------------------------------------------------------|

e|--------------------------------------------------x------------|
B|-------3---------------3---------------3----------4-(let ring)-|
G|---4-------4---4---4-------4---4---4-------4---4--4------------|
D|-2---2---2---2---2---2---2---2---2---2---2---2----1------------|
A|---------------------------------------------------------------|
D|---------------------------------------------------------------|


If the copy/paste of the tab itself messed up, I put the link there too X_X

How would I go about fingering this particular part? I've been doing it:

D 1st fret Index
D 2nd fret Middle Finger
G 4th fret Pinky
B 3rd fret Ring

When the notes switch to the 144 pattern instead of 242324etc, I'm trying to pull up my Middle finger and leave my Ring finger down, while barring my Pinky over the 4th fret on the B string.

Is their a more natural/economical way of doing this? I haven't gotten much progress switching the chord forms because it hurts pretty bad doing this fingering :/
#3
I tried hard not to laugh making it, but I knew people would still laugh v.v;
#5
In these situations, it is necessary to use this format:

e|------------------------------------------------------------------|
B|-------3---------------3---------------3-------------4------------|
G|---4-------4---4---4-------4---4---4-------4---4---4---4---4----4-|
D|-2---2---2---2---2---2---2---2---2---2---2---2---1---1---1---1----|
A|------------------------------------------------------------------|
D|------------------------------------------------------------------|

e|--------------------------------------------------x------------|
B|-------3---------------3---------------3----------4-(let ring)-|
G|---4-------4---4---4-------4---4---4-------4---4--4------------|
D|-2---2---2---2---2---2---2---2---2---2---2---2----1------------|
A|---------------------------------------------------------------|
D|---------------------------------------------------------------|
Quote by Duane_Allman
Your gayer than me, and thats pretty gay.
Quote by Twist of fate
If there's blood on the field, play ball.
[center]
The
e|--3---0---0--|
B|--0---1---0--|
G|--0---2---1--|
D|--0---2---2--|
A|--2---0---2--|
E|--3---x---0--|
You just lost.[/CENTER]
#6
1st finger on D string
2nd finger on B string
3rd (ring) finger on G string

Then when it switches to 1-4-4,
1st finger on D string
3rd finger on G string
Pinky on B string
NOW PART OF THE

Quote by Robchappers
You are epic my friend ;-)
Quote by RU Experienced?
At this point I'd be more surprised if you found me a Christian children's entertainer that didn't sodomize and eat kids.
Last edited by GibsonMan321 at Sep 20, 2011,