#1
Hello, I'm looking for a tab for this song. Preferably in Power Tab or Guitar Pro, but I'll take anything and beggars can't be choosers. Thanks to anyone out there considering this.

Here is a youtube link to the song for those who haven't heard it yet. Even if you don't want to tab it, it's a pretty fun song to listen to.

http://www.youtube.com/watch?v=7YUmcs9T7xM
#2
NO is pretty easy tbh - bump this thread and I'll do it in the morning. One of my favourite Kyuss songs to play
#3
Kyuss - N.O. - C Standard

|--------------------------|
|--------------------------|
|--------------------------|
|-------------11-9---------|
|-7-9-7--------------------|
|-------9-7-9--------------|

|--------------------------|
|--------------------------|
|----------------13-11-----|
|-9-11-9-------------------|
|--------11-9-11-----------|
|--------------------------|

|--------------------------|
|--------------------------|
|--------------------------|
|---7----6-----9-----------| "I wake up tomorrow today"
|---7----6-----7-----------|
|---5----4-----0-----------|

|-------------------------------------------------------|
|-------------------------------------------------------|
|-------------------------------------------------------|
|-------------------------------------------------------|
|---------7-9-7-9^-9-7-----9^----------7-9-7-9^-9-7-----|
|-7-9-9-9--------------9-7-----7-9-9-9--------------9-7-|

|-------------------------------------------------------|
|-------------------------------------------------------|
|---------7-9-7-9^-9-7-----9^----------7-9-7-9-7-9^-9---|
|-7-9-9-9--------------9-7-----7-9-9-9------------------|
|-------------------------------------------------------|

|--------------------------|
|--------------------------|
|--------------------------|
|--6----5----4-------------|
|--6----5----4-------------|
|--4----3----2-------------|

|--------------------------|
|--------------------------|
|---18----19----21---19----|
|-18----17----19---17------|
|--------------------------|
|--------------------------| \
                              }These two are played at the same time  
|--------------------------| /
|--------------------------|
|--------------------------|
|--11---5----7----5--------|
|--11---5----7----5--------|
|--9----3----5----3--------|

Then it's back to the intro but with the odd A powerchord over the top


The solo and outro are pretty much just Homme and Lalli wanking around a bit, I don't know it all that well (I mostly play bass) but I can have a go at tabbing it if you're desperate for that as well.