#1
These should be simple enough for some of the guitar savvy in here. These four songs are extremely sappy and since I know a lot of you guys will die a little inside if you took the time to tab them, I'm willing to paypal 50$ to whoever can accurately tab them out in text format with lyrics. I know he plays a half step down in the Parachute song, I haven't paid attention to the other ones closely enough to know if that's the case for all his songs.

If you're going to take on the task, make sure you have a paypal account set up but PM me the details and the finished tabs. I don't know if paying to have someone tab something out is against the rules (I really can't see why it would be) but I'm looking for accurate tablature (is that a word?) in this case. If this is a success you guys can count on me to come back for more tabs handing out more $ :P

Anyways, I apologize in advance for the music I chose. Don't judge me :P

http://www.youtube.com/watch?v=Z36dBESxfKA

http://www.youtube.com/watch?v=Uh4FbyTIScs
^ please include the notes he's playing during his annoying blabber at the beginning

http://www.youtube.com/watch?v=NakTn-_jNsw

http://www.youtube.com/watch?v=VH-DiVVjArM
Last edited by anchoricex at Oct 1, 2011,
#2
Also, is there a resource where I can find chords tabbed out in the x3202x style?
#5
Tuning for "Kiss me slowly" is Eb Ab Db Gb C# F# (that means you have to tune the 1st and 2nd strings two frets UP)

Em7:020000 (or 075000)
G:3x0000
Cadd9:x3x000
D:x54000
Dsus/F#:200200

Verse:
Em7 G Cadd9 D (4)

Chorus:
Cadd9 G Em7 Dsus/F# (2)

Some bridge chords:
C?:x34000
G/B:7x7000

Bridge:
C? G Em Dsus/F#
G/B G Em Dsus/F#
#6
'Vindicated'

Tuning: Eb Ab Bb Eb Bb eb (4th and 3rd strings are tuned down MORE than 1 fret back)


This is the bit that he plays while talking:

eb|---2h4p2p0----0--------------------0---------------------------------------0-------|
Bb|---------------0-----4p2p0------------0----------------------0--------------0-------|
Eb|--------------------------------0--4-------4\2p0-0---------------------------0-------|
Bb|--------------------------------------------------------0--2/4-----4\2p0-----0-------|
Ab|---------------------------------------------------------------------------------2--------|
Eb|---------------------------------------------------------------------------------0-------|


Intro (Strum chords)

eb|---0------0----------0-----0--------0--------0--0----0-----0---0----------|
Bb|---0------0----------0-----0--------0------- 0--0---- 0----0---0----------|
Eb|---2h4---4p2-------2-----2p0-----0h2----2/--4----0----0---0----------|
Bb|---0------0----------0-----0--------0--------x--x-----0----4---5----------|
Ab|---2------2------4-------------------0h2----2/-4-----0----x---x------------|
Eb|---0------0---------------------------------------------------5---5-----------|


eb|--0-----0------0---0--0----0----0-----0------0-----0---------------------------------|
Bb|--7h9--9p7---0---7--0----5/---7----7p9---9\----5---------------------------------|
Eb|--0-----0------0---0---0----0---0-----0------0-----0---------------------------------|
Bb|--0-----0------0---0---0----0---0-----0------0-----0---------------------------------|
Ab|--7-----7-----------x--------x----x-----x------x-----x---------------------------------|
Eb|--0-----0-----------9--------7/---9----9------9\----5--------------------------------|


Chords:
E:07x000
Dbm7:9xxx00
B:7xxx00
A:5xxx00

Verse:
E Dbm7 B A
E Dbm7 B

Chorus:
E A Dbm7 B (2)

Verse, chorus..

A Dbm7 B A


eb|-----0---------------------------------------------|
Bb|----------------------------------------------------|
Eb|-----------------0-2/4\2p0-----------------------|
Bb|----------0p4--------------------------------------|
Ab|-----------------------------------------------------|
Eb|-----------------------------------------------------|

Some Bridge chords:
Asus x02000
Dbm7:x45000
B:x24000
E(II):020000

Bridge:
Asus Dbm7 B
E(II) Dbm7 B A
E Dbm7 B A