#1
anything else people notice thats been used in many thrash songs?

sliding pinch harmonic stuff like this

e----------------------------------
B----------------------------------
G----------------------------------
D----------------------------------
A-7^p6--6^p5--5^p4-4^p3---
E--------7-------6---------------4-- these are palm muted

or reversed

e-----------------------------------
B-----------------------------------
G-----------------------------------
D-----------------------------------
A-6^h7----5^h6--4^h5--3^h4----
E--------7----------6-------5------4-- these are palm muted

or trill stuff like this

e---------------------------------------------
B---------------------------------------------
G--------------------------------------------
D-----9--99-----9-----9--------------------
A-----7--77-----7-----7-----7h8p7h8p7h8p7h8p7h8
E-7-7--7----7h8--77----77----------------- these are palm muted

exodus type hammer on pull off palm mute stuff

A-4h5p4--4h5p4---4h5h4---
E---------6---------6---------54 these are palm muted
Last edited by Thundervag at Oct 2, 2011,
#2
---5-10-5--------10-14-10-10------17-14------------------------14------------|
--7------7-----10-----------10---------15--------------------15--------------|
-7--------7--11---------------11---------14----------------14----------------|
-------------------------------------------16------------16------------------|
---------------------------------------------17-12--12-17--------------------|
--------------------------------------------------14-------------------------|

-12-9--------17-12------------12-9--------9-5----------------2-7-2---2-------|
-----10-----------14--------------10---------5--------------4-----4-4--------|
-------9------------14--------------9---------6------------4-------4---------|
--------11------------14-11----------11--------7--------1-4------------------|
----------12---------------12---------12--------7-4----2---------------------|
---------------------------------------------------5-------------------------|


--11-7---7-----------12-14-16-14-12-------------------------------------12---|
------7-7----12-14-15--------------15-14-12--15-14-12-----------12-14-15--15-|
-------6---------------------------------------------14-13-11----------------|
-----------------------------------------------------------------------------|
-----------------------------------------------------------------------------|
-----------------------------------------------------------------------------|

-----------------14---------------15----------------17------19-15------15----|
-14-12---14-15-17--17-15--15-17-19--19-17---17-19-21--20-19------15--15------|
-------------------------------------------------------------------16--------|
-----------------------------------------------------------------------------|
-----------------------------------------------------------------------------|
-----------------------------------------------------------------------------|

--15-10------10--10-7---------------7--7-2---2---10-7---7--14-10------10-----|
-------12--12--------8-------------8------3-3--------7-7--------12--12-------|
---------12-----------7-----------7--------4----------7-----------11---------|
-----------------------9---------9-------------------------------------------|
------------------------10-5-5-10--------------------------------------------|
----------------------------7------------------------------------------------|

--19-14------14---19-14--14------14-10------10----10-7-------------7---------|
-------15--15----------15--15---------12--12----------7-----------7----------|
---------16------------------16---------11-------------7---------7-----------|
--------------------------------------------------------9-------9------------|
---------------------------------------------------------9-5-5-9-------------|
------------------------------------------------------------7----------------|

---------12-14-12----------------14-16-14---------------16-17-16-------------|
-12-14-16--------16-14---14-16-17--------17-16--16-17-19--------19-17--17-19-|
-----------------------------------------------------------------------------|
-----------------------------------------------------------------------------|
-----------------------------------------------------------------------------|
-----------------------------------------------------------------------------|

---17-19-17------------------------------------------------------------------|
-21--------21-19-------------------------------------------------------------|
-----------------------------------------------------------------------------|
-----------------------------------------------------------------------------|
-----------------------------------------------------------------------------|
-----------------------------------------------------------------------------|
#3
Quote by griffRG7321
---5-10-5--------10-14-10-10------17-14------------------------14------------|
--7------7-----10-----------10---------15--------------------15--------------|
-7--------7--11---------------11---------14----------------14----------------|
-------------------------------------------16------------16------------------|
---------------------------------------------17-12--12-17--------------------|
--------------------------------------------------14-------------------------|

-12-9--------17-12------------12-9--------9-5----------------2-7-2---2-------|
-----10-----------14--------------10---------5--------------4-----4-4--------|
-------9------------14--------------9---------6------------4-------4---------|
--------11------------14-11----------11--------7--------1-4------------------|
----------12---------------12---------12--------7-4----2---------------------|
---------------------------------------------------5-------------------------|


--11-7---7-----------12-14-16-14-12-------------------------------------12---|
------7-7----12-14-15--------------15-14-12--15-14-12-----------12-14-15--15-|
-------6---------------------------------------------14-13-11----------------|
-----------------------------------------------------------------------------|
-----------------------------------------------------------------------------|
-----------------------------------------------------------------------------|

-----------------14---------------15----------------17------19-15------15----|
-14-12---14-15-17--17-15--15-17-19--19-17---17-19-21--20-19------15--15------|
-------------------------------------------------------------------16--------|
-----------------------------------------------------------------------------|
-----------------------------------------------------------------------------|
-----------------------------------------------------------------------------|

--15-10------10--10-7---------------7--7-2---2---10-7---7--14-10------10-----|
-------12--12--------8-------------8------3-3--------7-7--------12--12-------|
---------12-----------7-----------7--------4----------7-----------11---------|
-----------------------9---------9-------------------------------------------|
------------------------10-5-5-10--------------------------------------------|
----------------------------7------------------------------------------------|

--19-14------14---19-14--14------14-10------10----10-7-------------7---------|
-------15--15----------15--15---------12--12----------7-----------7----------|
---------16------------------16---------11-------------7---------7-----------|
--------------------------------------------------------9-------9------------|
---------------------------------------------------------9-5-5-9-------------|
------------------------------------------------------------7----------------|

---------12-14-12----------------14-16-14---------------16-17-16-------------|
-12-14-16--------16-14---14-16-17--------17-16--16-17-19--------19-17--17-19-|
-----------------------------------------------------------------------------|
-----------------------------------------------------------------------------|
-----------------------------------------------------------------------------|
-----------------------------------------------------------------------------|

---17-19-17------------------------------------------------------------------|
-21--------21-19-------------------------------------------------------------|
-----------------------------------------------------------------------------|
-----------------------------------------------------------------------------|
-----------------------------------------------------------------------------|
-----------------------------------------------------------------------------|

That actually looks familiar...
We're all alright!