#1
anything else that you guys have noticed thats been used in many thrash songs?
sliding pinch harmonic stuff like this

e----------------------------------
B----------------------------------
G----------------------------------
D----------------------------------
A-7^p6--6^p5--5^p4-4^p3---
E--------7-------6---------------4-- these are palm muted

or reversed

e-----------------------------------
B-----------------------------------
G-----------------------------------
D-----------------------------------
A-6^h7----5^h6--4^h5--3^h4----
E--------7----------6-------5------4-- these are palm muted

or trill stuff like this

e---------------------------------------------
B---------------------------------------------
G--------------------------------------------
D-----9--99-----9-----9--------------------
A-----7--77-----7-----7-----7h8p7h8p7h8p7h8p7h8
E-7-7--7----7h8--77----77----------------- these are palm muted

exodus type hammer on pull off palm mute stuff

A-4h5p4--4h5p4---4h5h4---
E---------6---------6---------54 these are palm muted
Last edited by Thundervag at Oct 2, 2011,
#4
Don't forget the E-string chuggas with the random power chords thrown in.

D-----------------------------9-------------7----------------5---------
A-----------------------------7-------------5----------------3---------
E -------0-----0--000-0-0---0--0--000-----0--0--000----0-0----

And this kind of stuff:

D----------------------------------7----5--------
A----5----7----8-----7-----5-------------------
E-0----0----0------0----0-----0----0----------

EDIT: I suppose that's more riffs than licks
Quote by Diamond Dave

Things that restored my faith in humanity this year: 26
Things that removed all faith in humanity this year: 1,563,745,234 (estimated)

so that's a result of -1,563,745,208 faith points in humanity lost, which is actually up from last year!
Last edited by thrashdeth at Oct 9, 2011,