#1
Hello everyone,

since the new album of Ghost Brigade (Until Fear No Longer Defines Us) is out I try to find tabs for the great opener "In the Woods". I tried to tab it by myself but for I am a bloody beginner I can't identify the notes correct. I think the guitar part is not very hard and it is repeating all over the time so maybe it is a good song for a beginner.

I would be glad if someone can help me out (with tabs, chords, mode ... everything). Here is a link to the song on youtube: In the Woods

Many thanks!

Frank
Trying to remember the names of the places
Where we used to go when we were young
(Ghost Brigade - In the Woods)
#2
OK. I think I have the first 4 bars.

E |--------0-------|----------------|--------3-------|--------1-------|| 
B |----------------|--1--3----------|--------3-------|--------3-------|| 
G |-----2----------|-----------2----|-----2--2-------|-----2--2-------|| 
D |--0--------0----|----------------|--0-----0-------|--0-----0-------|| 
A |----------------|----------------|----------------|----------------|| 
E |----------------|----------------|----------------|----------------||
Trying to remember the names of the places
Where we used to go when we were young
(Ghost Brigade - In the Woods)
Last edited by FrankBlack78 at Oct 3, 2011,
#3
As far as I can see the bars 5 to 8 are:

E |--------0-------|----------------|--------0-------|--------0-------|| 
B |----------------|--1--3----------|--------1-------|--------1-------|| 
G |-----2----------|-----------2----|--------2-------|--------2-------|| 
D |----------------|----------------|-----2--2-------|-----2--2-------|| 
A |--3--------3----|----------------|--0-----0-------|--0-----0-------|| 
E |----------------|----------------|----------------|----------------||


Thus, mode must be in the key of C.

Time signature is common time.

Would be nice if someone could recheck this.
Trying to remember the names of the places
Where we used to go when we were young
(Ghost Brigade - In the Woods)
Last edited by FrankBlack78 at Oct 3, 2011,
#4
Hmm, it seems that this song is not very attractive for you people, eh? Whatever! I think I have first and second guitar now. The only thing that is missing is the strumming in the refrain. Can please someone give suggestions for the chords and the strumming pattern?
Trying to remember the names of the places
Where we used to go when we were young
(Ghost Brigade - In the Woods)
#5
Hello!
I just found out this band a couple of weeks ago and I think they are awesome.
Mabey i'll give it a shot, and try to help you out.
But i am not the best at this stuff...
Thanks for posting what you've got so far any way =)

Vesus
#6
Until now I think it is Dm and Am in the refrain. But not sure.
Trying to remember the names of the places
Where we used to go when we were young
(Ghost Brigade - In the Woods)
#7
Hello! I really suck at this. I realy don't think i'll be able to figure it out... =(
#8
I worte an E-Mail to the band. Especially regarding the second guitar line in the chorus. Maybe they answer. But first of all I will see them on Monday \m/
Trying to remember the names of the places
Where we used to go when we were young
(Ghost Brigade - In the Woods)
#10
So, a few years later several tabs and chords and stuff is online but no one did the strumming so far. I am not sure and the band never replied to my e-mail, but after some practise I play that song in Drop-D and do D an G as the strumming parts. Works fine for me.

Greetings.
Trying to remember the names of the places
Where we used to go when we were young
(Ghost Brigade - In the Woods)