#1
Hey UG (First post whoop!),

Im trying to figure out the 2 main melodies to this song...

http://www.youtube.com/watch?v=talOq6wp8kk

...but my ear is not perfect, and they're fairly fast (not metal fast but just enough to **** with me lol). The 2 melodies i cant figure out completely are the intro one, and the one that comes in at :45.

I dont need a perfect tab, but any amount of help would be appreciated. I really think this would be a sweet song to cover live with real instruments!

Thanks!
#2
intro pattern: (play this part with capo on 5th fret)
e|------------------------------------0---------------------------------------|
B|----------------1----------------------1-----------1-----------------------|
G|---------0---------0-----0---------------0----------------0---------------|
D|------2-----2---------2----------------------------------------------------|
A|---3--------------------------3----------------3-------3-------------------|
E|-----------------------------------------------------------------------------|

e|---------------------------------------------------0---------------------|
B|------------------0----------------3--0-------------------0------------|
G|----------0----------0-----0-----------------0-------------------------|
D|------2-----------------2-----------------------------------------------|
A|---2---------2-----------------2----------2----------2----------------|
E|-------------------------------------------------------------------------|

e|---------------------------------------------------------------------------|
B|------------------------1-------------------------------------------------|
G|-----------2---------------2---------------------------------------------|
D|--------2---------------------2-------2----------2----------------------|
A|--0--3--------0---3---------------3-----0---3----------0--------------|
E|-------------------------------------------------------0------------------|


e|----------------------------------------------------------------------|
B|-------------------------------------------0--------3--1-0----------|
G|-------------0----------0---------0---------------------------------|
D|----------0----------0-----------------------------------------------|
A|------2------------------------2-------------------------------------|
E|---3-------------3---------3----------3------3---------------------|


(last part before the whole band starts playing)
e|----------------------------------------------------------------------|
B|----------------------------------------------0-----------------------|
G|-------------0----------0---------0---------------------------------|
D|----------0----------0-----------------------------------------------|
A|------2------------------------2-------------------------------------|
E|---3-------------3---------3----------3----------------------------|


Second guitar (tabbed with no capo)

e|-------------------------------------------------------------------13-12-----------------|
B|---15---13----------------------------13-15--13------------------------15--13------|
G|-------------14----------------12-14---------------14--12----------------------------|
D|---------------------14--15--------------------------------------------------------------|
A|-------------------------------------------------------------------------------------------|
E|-------------------------------------------------------------------------------------------|

e|----------------------------------------------------------------------------------------|
B|-----------------------------13--15--13--------13----------------------------------|
G|-------------12--13------------------------14---------12---------------------------|
D|--14--15-------------14---------------------------------------15-------------------|
A|----------------------------------------------------------------------------------------|
E|----------------------------------------------------------------------------------------|


e|---------------------------------------------------------------------------|
B|-------------------------15--13--------------15--13-------------------|
G|-------------12---14-------------14---------------------14----12-----|
D|--14--15------------------------------12--------------------------------|
A|---------------------------------------------------------------------------|
E|---------------------------------------------------------------------------|


e|--------------------------------------------------|-----------------------------------|
B|-----------------13--------------------------15-|-15----13------------------------|
G|------------14-----------------------------------|----------------14..etc-----------|
D|--14--15------------12-------12----15-------|------------------------------------|
A|----------------------------15-------------------|------------------------------------|
E|--------------------------------------------------|-------------------------------------|
#7
i could use some help with just the basic chords for the song to get the rythm goin