#2
I tabbed it with a standard tuning (I think the tuning for the first guitar is drop C)

Intro and verse pattern:

e|---------------------------------------------------------------------------|
B|---------------------------------------------------------------------------|
G|---------------------------------------------------------------------------|
D|---------------------------------------------------------------------------|
A|-------------------3-----------------------------3------------------------|
E|----5-5-5-----5-----5---5-5-3---5-5-5---5-----5---5-5-3-----------|

e|---------------------------------------------------------------------------|
B|---------------------------------------------------------------------------|
G|---------------------------------------------------------------------------|
D|---------------------------------------------------------------------------|
A|------------------3--3--3-----3-5------------------3--------------------|
E|--1-1-1---1-3----------------------5--5--5----5-----5-----5--5--3---|

Chorus:

F C Em Am (2)


Bridge:

Am F C Am (2)