#1
hey pit, i havent seen one of these in a while so i thought we should do one again.

basically what u do is we take a blank tab and keep adding notes or chords or whatever. u can add as much as you like, but dont do too much. when we are done or i just feel like finishing it (or if somebody else does) i will put it into guitar pro and try to make it sound nice (however i suck at GP so if somebody else can do it that would be great). if somebody wants to play it and upload it to youtube or their UG account player thing that would be cool, but not necessary. the last one was hilarious and when i find the file i will upload it to show u guys how it sounds.

here is a blank template

e|---------------------------------------------------------------------------|
B|---------------------------------------------------------------------------|
G|---------------------------------------------------------------------------|
D|---------------------------------------------------------------------------|
A|---------------------------------------------------------------------------|
E|---------------------------------------------------------------------------|

e|---------------------------------------------------------------------------|
B|---------------------------------------------------------------------------|
G|---------------------------------------------------------------------------|
D|---------------------------------------------------------------------------|
A|---------------------------------------------------------------------------|
E|---------------------------------------------------------------------------|

e|---------------------------------------------------------------------------|
B|---------------------------------------------------------------------------|
G|---------------------------------------------------------------------------|
D|---------------------------------------------------------------------------|
A|---------------------------------------------------------------------------|
E|---------------------------------------------------------------------------|
 



nvm: no scale restriction. however if u want to stay in key, then the beginning is in A minor

here is the beginning

e|---------------------------------------------------------------------------|
B|---------------------------------------------------------------------------|
G|---------------------------------------------------------------------------|
D|----5--5--5--5-----------------------------------------------------------------|
A|----5--5--5--5-----------------------------------------------------------------|
E|----3--3--3--3-----------------------------------------------------------------|

e|---------------------------------------------------------------------------|
B|---------------------------------------------------------------------------|
G|---------------------------------------------------------------------------|
D|---------------------------------------------------------------------------|
A|---------------------------------------------------------------------------|
E|---------------------------------------------------------------------------|



also: add whatever you want, even if its unplayable normally. its going into guitar pro so it can be whatever
Last edited by ironman1478 at Oct 10, 2011,
#2
i say E chords shouldn't be allowed.
There's no such thing; there never was. Where I am going you cannot follow me now.
#3
F*** A minor. Music shouldn't be restricted to scales.
Oh well:

e|---------------------------------------------------|
B|---------------------------------------------------|
G|---------------------------------------------------|
D|--5-5-5-5-----5-5-5-5-----5-5-5-5-----5-5-5-5-5-5--|
A|--5-5-5-5-----5-5-5-5-----5-5-5-5-----5-5-5-5-5-5--|
E|--3-3-3-3-----3-3-3-3-----3-3-3-3-----3-3-3-3-3-3--|

e|---------------------------------------------------|
B|---------------------------------------------------|
G|---------------------------------------------------|
D|--5-5-5-5-----5-5-5-5-----5-5-5-5-----5-5-5-5-5-5--|
A|--3-3-3-3-----3-3-3-3-----3-3-3-3-----3-3-3-3-3-3--|
E|--5-5-5-5-----5-5-5-5-----5-5-5-5-----5-5-5-5-5-5--|

Thats 3/4 btw.
Guitars & Gear:
Parker Nitefly M
Sumer Metal Driver
Ibanez RGD2120Z
AMT SS-11B
Two Notes Torpedo CAB
Last edited by Emperor's Child at Oct 10, 2011,
#4
Quote by Emperor's Child
F*** A minor. Music shouldn't be restricted to scales.
Oh well:

Thats 3/4 btw.

e|---------------------------------------------------|
B|---------------------------------------------------|
G|---------------------------------------------------|
D|--5-5-5-5-----5-5-5-5-----5-5-5-5-----5-5-5-5-5-5--|
A|--5-5-5-5-----5-5-5-5-----5-5-5-5-----5-5-5-5-5-5--|
E|--3-3-3-3-----3-3-3-3-----3-3-3-3-----3-3-3-3-3-3--|

e|----------------------------------------------------------------------------------|
B|----------------------------------------------------------------------------------|
G|----------------------------------------------------------------------------------|
D|--5-5-5-5-----5-5-5-5-----5-5-5-5-----5-5-5-5-5-5---------------6-7-6|
A|--3-3-3-3-----3-3-3-3-----3-3-3-3-----3-3-3-3-3-3------------8---------|
E|--5-5-5-5-----5-5-5-5-----5-5-5-5-----5-5-5-5-5-5--5--8--7------------|


Let's get harmonic minor in this bitch.

EDIT: God, I suck at tabbing.
you're a stone fox
#5
God I love Harmonic Minor (esp. D Harmonic Minor)

EDIT: That's C Augmented Fifth, and I cant work out the rhythm, is that meant to be 3/4 or 4/4?
Guitars & Gear:
Parker Nitefly M
Sumer Metal Driver
Ibanez RGD2120Z
AMT SS-11B
Two Notes Torpedo CAB
Last edited by Emperor's Child at Oct 10, 2011,
#7
inb4 retards post tablature upside down.
Quote by SomeoneYouKnew
Your post was the only bright spot in this disgusting piece of thread.

Quote by lexanirider78
You have balls. I like balls....(awkward silence)

Quote by SeveralSpecies
I waited for the rape.

...


...but the rape never came
#9
Quote by smokeysteve22

It happens every fucking time!
Quote by SomeoneYouKnew
Your post was the only bright spot in this disgusting piece of thread.

Quote by lexanirider78
You have balls. I like balls....(awkward silence)

Quote by SeveralSpecies
I waited for the rape.

...


...but the rape never came