#1
d -9-9-------------------------7--7--------5---
a 7-7--7-9-10-10-9-7---5--5--5-7-8----8-7

kinda fast temp

please, i need to know this!!!
#2

d -9-9-------------------------7--7--------5---
a 7-7--7-9-10-10-9-7---5--5--5-7-8----8-7


Maybe you can play it and record it, then upload it. This doesn't give us anything to go by.

Also, what's your tuning? A standard? or E standard?



Dysania:
The state of finding it hard to get out of bed in the morning.

Want that on a shirt? Check out my DistrictLines online store, Asixex

For that exact shirt, click here




ESP/LTD H-51
CRATE G-40-C
DIGITECH DF-7

#3
e------------------------------------------------------
b------------------------------------------------------
g------------------------------------------------------
d --9--9--------------------------7---7--------5----
a 7--7---7--9-10-10-9-7---5---5---5-7-8----8-7
e------------------------------------------------------
this is little more accurate
#5
yes, something like that but even more similar to the tab i posted. thanks!