#1
I recently got the Children Of Bodom's Blooddrunk album and one track that really stands out to me is their cover of "Out My Back Door". Whatever you may think. I love the crazy little "solo" he does from 1:20 to 1:28. I have been playing for only 2 and a half years so my ear isn't that great. It'd be really cool if one of you guys could help me out.

Cheers!
P.S - Choose Vevo's video on YouTube!
Quote by luxeion
i keep asking my dad for wood. but he keeps getting annoyed (he's working on a house). and i'm too young to go outside.

Last edited by StrykVladzimsky at Oct 15, 2011,
#2
Hello, everybody, the good shoping place, the new season approaching, click in.
Welcome to http://www.proxy4biz.com
Air Jordan (1-24) shoes $35
UGG BOOT $50
Nike shox (R4, NZ, OZ, TL1, TL2, TL3) $35
Handbags ( Coach Lv fendi D&G) $35
T-shirts (polo, ed hardy, lacoste) $16
Jean (True Religion, ed hardy, coogi)$34
Sunglasses ( Oakey, coach, Gucci, Armaini)$15
New era cap $16
Bikini (Ed hardy, polo) $18
FREE SHIPPING
http://www.proxy4biz.com

http://www.proxy4biz.com

http://www.proxy4biz.com

http://www.proxy4biz.com

http://www.proxy4biz.com

http://www.proxy4biz.com
===( http://www.proxy4biz.com

===( http://www.proxy4biz.com )===

===(http://www.proxy4biz.com)===

===( http://www.proxy4biz.com )===

===( http://www.proxy4biz.com)===

===(http://www.proxy4biz.com )===

===( http://www.proxy4biz.com )===
#3

D-|----15----15--------15----15----|
A-|-18b---18b---18b-18b---18b---18b|
F-|--------------------------------|
C-|--------------------------------|
G-|--------------------------------|
D-|--------------------------------|

D-|-17p13-------15p12------------------------------|
A-|-------13----------13----------13---------------|
F-|----------14----------12-10/12-L----------------|
C-|------------------------------------------------|
G-|------------------------------------------------|
D-|------------------------------------------------|

D-|-------------------------------------12h15-12---|
A-|-------------------------13-13-13-15------------|
F-|-12-12-12-14-14-14-12-12------------------------|
C-|------------------------------------------------|
G-|------------------------------------------------|
D-|------------------------------------------------|

D-|-------15--------/22------------|
A-|-15----------15-----------------|
F-|--------------------------------|
C-|--------------------------------|
G-|--------------------------------|
D-|--------------------------------|


Cheers.
#4
Holy hell! That was really quick! I really appreciate it
Quote by luxeion
i keep asking my dad for wood. but he keeps getting annoyed (he's working on a house). and i'm too young to go outside.

#6
What does that L mean by the way?
Quote by luxeion
i keep asking my dad for wood. but he keeps getting annoyed (he's working on a house). and i'm too young to go outside.