#2
I wouldn't make a lot of threads around here. It pretty much depends on the person liking the song enough to tab it.
Quote by luxeion
i keep asking my dad for wood. but he keeps getting annoyed (he's working on a house). and i'm too young to go outside.

#3
ah ok :P i just thought there was a tab request forum, am i not in the right plae? clearly new here :/
#4
i have a tab for it they are an awesome band
INTRO
E------------------------------
B---------------------------
G---------4--------------4
D--2-3-2--2-3---2-3-2--
A--2-3-2--2-3---2-3-2--
D--2-3-2---2-3---2-3-2---
REPEAT

VERSE
E--------------------------------------------
B--------------------------------------------
G--------------------------------------------
D------------------------3----------------------
A--5-3-5-5-5-5-3-5-3-------------------------------------
D--------------------------------------------
X2

E-------------------------------------
B-----------------------------------
G---------4----------------4----------4
D--2-3-2-4-2-3-----------4-2-3-2--4-3-2-3-3-2-3--4-
A--2-3-2-2-2-3-----------2-2-3-2--2-3-2-3-3-2-3-----2-0
D--2-3-2---2-3-222222----2-3-2----3-2-3-3-2-3----------

sexy girls come up to me ......
E-------------------------
B-------------------------
G-------------------------2
D-4-2-4-4---4-4-2-4-2-
A-------------------------
D-------------------------
REPEAT

E--7-----------------7----------
B-----6-------6-------6-----------
G---------5-5-----------5-----
D------------------
A-------------------
E------

she might not be my girl just yet.......
E-------------------------
B-------------------------
G--9-10-7-8-9-8-8
D-------------------------
A-------------------------
D-------------------------
bridge
E-----------
B---------------
G--7-7-7-7-7-7-7-5-9----------------
D------------------
A---------------
D------------------