#4
Quote by pipeline54
I heard this the other day and it's amazing. Sorry I'm not responding with a quote, I'm actually looking for the same thing!



Haha im pretty sure a lot of people are looking for the same thing So for those who do not mind aiding us in where we lack , help us listen for the chords and maybe be able to provide a tab

Appreciated talented people !!
#5
standard and capo on 5th fret


Intro and verse pattern:
e|---------------------------------------------------------------------------|
B|---------------------------------------------------------------------------|
G|-----------0----------0-----------0----------2--------------------------|
D|--------0----------0----------2-----------0-----------------------------|
A|----------------3-----------------------0--------------------------------|
E|---3-----------------------0---------------------------------------------|

e|------------------|------------------------------------------------------------------|
B|------------------|------------------------------------------------------------------|
G|---2p0-----0---|-------------2h4-----------0-----------0----------2-----0-----| (4x)
D|----------0------|---------0--------------0------------2---------0----------------|
A|------------------|---------------------3---------------------------------0---------|
E|------------------|----3-----------------------------0------------------------------|


e|------------------------------------------------------------------------|
B|---------------1p3----------------------------------------------------|
G|------------------------------0------------0p2----------2-----0-----|
D|----------0--------------0-------------2------------0-----------------|
A|----------------------3--------------------------------------0---------|
E|------3-----------------------------0----------------------------------|


e|------------------------------------------------------------------------|
B|---------------1p3----------------------------------------------------|
G|------------------------------0------------0p2-----------------------|
D|----------0--------------0-------------2-----------0-----------------|
A|----------------------3-----------------------------0------------------|
E|------3-----------------------------0----------------------------------|
Last edited by crmrz at Oct 19, 2011,
#6
Quote by crmrz
standard and capo on 5th fret


Intro and verse pattern:
e|---------------------------------------------------------------------------|
B|---------------------------------------------------------------------------|
G|-----------0----------0-----------0----------2--------------------------|
D|--------0----------0----------2-----------0-----------------------------|
A|----------------3-----------------------0--------------------------------|
E|---3-----------------------0---------------------------------------------|

e|------------------|------------------------------------------------------------------|
B|------------------|------------------------------------------------------------------|
G|---2p0-----0---|-------------2h4-----------0-----------0----------2-----0-----| (4x)
D|----------0------|---------0--------------0------------2---------0----------------|
A|------------------|---------------------3---------------------------------0---------|
E|------------------|----3-----------------------------0------------------------------|


e|------------------------------------------------------------------------|
B|---------------1p3----------------------------------------------------|
G|------------------------------0------------0p2----------2-----0-----|
D|----------0--------------0-------------2------------0-----------------|
A|----------------------3--------------------------------------0---------|
E|------3-----------------------------0----------------------------------|


e|------------------------------------------------------------------------|
B|---------------1p3----------------------------------------------------|
G|------------------------------0------------0p2-----------------------|
D|----------0--------------0-------------2-----------0-----------------|
A|----------------------3-----------------------------0------------------|
E|------3-----------------------------0----------------------------------|


OMG THANKS SO MUCH MAN !!!!!

Really appreciate it !!! It helped me so much in trying to figure it out.
If anyone want to improve on this please go ahead

THANKS AGAIN CRMRZ , you made my day man , i hope you will have splendid days to come.
Last edited by NixTime at Oct 20, 2011,