Song Request- Bridges will Burn- Rise to Remain ( for 2 guitars, rhythym and lead)

#1
Sup guys,

I'm in a band and we're really hoping to record some songs next week and we decided we really want to do this song but there are no tabs up for it!

Any help would be hugely appreciated

Will
#2

e|-----------------------------------------------|
B|-----------------------------------------------|
G|-----------------------------------------------|
D|-----------------------------------------------| 
A|--------S----H-I---------T-----E---------------|
D|-0-00-----0-------000-----0--------------------|
Quote by ChemicalFire
The point of underground bands is their not popular or famous most of the time. Thus there is a good chance they suck.
#3
Quote by eazy-c

e|-----------------------------------------------|
B|-----------------------------------------------|
G|-----------------------------------------------|
D|-----------------------------------------------|
A|--------S----H-I---------T-----E---------------|
D|-0-00-----0-------000-----0--------------------|



This is very accurate which is the sad part.
#4
Quote by eazy-c

e|-----------------------------------------------|
B|-----------------------------------------------|
G|-----------------------------------------------|
D|-----------------------------------------------|
A|--------S----H-I---------T-----E---------------|
D|-0-00-----0-------000-----0--------------------|



so thats all you play for the ENTIRE song?
#5
^ Nah, there's this part too:

e|---------------------------------------------------------------|
B|---------------------------------------------------------------|
G|---------------------------------------------------------------|
D|---------------------------------------------------------------|
A|--------S----H-I---------T-----E--------x-------2-----------|
D|-1-00-----0-------100-----0---3333----000-------------|

Slight variation. Good luck bro.
#7
Rise to Remain are neither metal nor anything special.


And this is the wrong forum for this anyway.
All I want is for everyone to go to hell...
...It's the last place I was seen before I lost myself



Quote by DisarmGoliath
You can be the deputy llamma of the recordings forum!
#8
Calum wins.
Quote by Ultraussie
I want to try that while playing the opening riff to "Tempting Time".

0-0-0-13-0-0-0-0-13 or something like that alalalala but It;s so heavy and off time and awesome and you could not f**k anyone to it.


Quote by Ingested
burzum IS nazi. well, varg is.