#2
I can, hang on

EDIT:

|------------------------9-7-5-7-9-7---5-4p2p0---16-14---------------------------------------------------------------- |--------------------------------------------------------------------------------------------------------------------- |--8-------8--8--9-8-6---------------------------------9-8-9-11---------------8---13--(13)1416--14--13h14p13s11h13p119 |-----6--9------------------------------------------------------9---------9-6---9------------------------------------- |----------------------------------------------------------------------6---------------------------------------------- |-------------------------------------------------------------------4-------------------------------------------------
Quote by razorback91
Im sorry, I just don't see how you could argue that hardcore isn't metal. That just seems arrogant to me.

Yes, its its own kind of metal, but its still metal.
Last edited by 08L1V10N at Oct 23, 2011,
#3
|--12-11-12-14s16-------17-16-17------------------------
|-----------------12-------------17---------------------
|-----------------------------------16-14-16-13---------
|-----------------------------------------------14-16---
|-------------------------------------------------------
|-------------------------------------------------------
Quote by razorback91
Im sorry, I just don't see how you could argue that hardcore isn't metal. That just seems arrogant to me.

Yes, its its own kind of metal, but its still metal.
#4
End with

A|-------------
E|-11p9p7----
Quote by razorback91
Im sorry, I just don't see how you could argue that hardcore isn't metal. That just seems arrogant to me.

Yes, its its own kind of metal, but its still metal.
#5
Damn I am such a noob, I can't even play now
Thanks for all your efforts.
Damn me..
Last edited by dragonballdbz at Oct 23, 2011,
#6
Your welcome man!
You having problems with the fingerings? Cause they'd be tricky for anyone..that's the advantage of keys: you can more easily play wide intervals
Quote by razorback91
Im sorry, I just don't see how you could argue that hardcore isn't metal. That just seems arrogant to me.

Yes, its its own kind of metal, but its still metal.
#7
Yeah man, I begun playing 5months ago, tried to learn some basics. But i still suck badly at guitar. Now a days, I play some 2times a week (for 1 hr each) but it is not helping much. I am usually practising 1-2-3-4 pattern..
#8
Hi Oblivion, since you have already tabbed this, can you play it and post on youtube so that I can get the tempo?

Thanks a bunch my friend.
#9
Haha that's a pretty cool idea I try to do that the upcoming morning

Also listen to the song a lot :P


EDIT: here's the tab fixed:

e|------------------------9-7-5-7-9-7---5-4p2p0---16-14-------------|
B|------------------------------------------------------------------|
G|--8-------8--8--9-8-6----------------------------------9-8-9-11---|
D|-----6--9-------------------------------------------------------9-|
A|------------------------------------------------------------------|
E|------------------------------------------------------------------|

---------------------------------------------------|
---------------------------------------------------|
----------8---13--(13)1416--14--13h14p13s11h13p119-|
------9-6---9--------------------------------------|
---6-----------------------------------------------|
4--------------------------------------------------|


|--12-11-12-14s16-------17-16-17------------------------|
|-----------------12-------------17---------------------|
|-----------------------------------16-14-16-13---------|
|-----------------------------------------------14-16---|
|-------------------------------------------------------|
|-------------------------------------------------------|
Quote by razorback91
Im sorry, I just don't see how you could argue that hardcore isn't metal. That just seems arrogant to me.

Yes, its its own kind of metal, but its still metal.
Last edited by 08L1V10N at Oct 24, 2011,
#11
Thanks for this man. You are my new god!!
And you play like a pro. Wish you could teach me guitar..